  0
SECTION
  2
HEADER
  9
$ACADVER
  1
AC1018
  9
$ACADMAINTVER
 70
     0
  9
$DWGCODEPAGE
  3
ANSI_1252
  9
$INSBASE
 10
0.0
 20
0.0
 30
0.0
  9
$EXTMIN
 10
75736164.0040001
 20
23387343.0519981
 30
0.0
  9
$EXTMAX
 10
75761838.4240001
 20
23417057.6679982
 30
0.0
  9
$LIMMIN
 10
0.0
 20
0.0
  9
$LIMMAX
 10
12.0
 20
9.0
  9
$ORTHOMODE
 70
     0
  9
$REGENMODE
 70
     1
  9
$FILLMODE
 70
     1
  9
$QTEXTMODE
 70
     0
  9
$MIRRTEXT
 70
     1
  9
$LTSCALE
 40
1.0
  9
$ATTMODE
 70
     1
  9
$TEXTSIZE
 40
0.2
  9
$TRACEWID
 40
0.05
  9
$TEXTSTYLE
  7
Standard
  9
$CLAYER
  8
0
  9
$CELTYPE
  6
ByLayer
  9
$CECOLOR
 62
   256
  9
$CELTSCALE
 40
1.0
  9
$DISPSILH
 70
     0
  9
$DIMSCALE
 40
1.0
  9
$DIMASZ
 40
0.18
  9
$DIMEXO
 40
0.0625
  9
$DIMDLI
 40
0.38
  9
$DIMRND
 40
0.0
  9
$DIMDLE
 40
0.0
  9
$DIMEXE
 40
0.18
  9
$DIMTP
 40
0.0
  9
$DIMTM
 40
0.0
  9
$DIMTXT
 40
0.18
  9
$DIMCEN
 40
0.09
  9
$DIMTSZ
 40
0.0
  9
$DIMTOL
 70
     0
  9
$DIMLIM
 70
     0
  9
$DIMTIH
 70
     1
  9
$DIMTOH
 70
     1
  9
$DIMSE1
 70
     0
  9
$DIMSE2
 70
     0
  9
$DIMTAD
 70
     0
  9
$DIMZIN
 70
     0
  9
$DIMBLK
  1

  9
$DIMASO
 70
     1
  9
$DIMSHO
 70
     1
  9
$DIMPOST
  1

  9
$DIMAPOST
  1

  9
$DIMALT
 70
     0
  9
$DIMALTD
 70
     2
  9
$DIMALTF
 40
25.4
  9
$DIMLFAC
 40
1.0
  9
$DIMTOFL
 70
     0
  9
$DIMTVP
 40
0.0
  9
$DIMTIX
 70
     0
  9
$DIMSOXD
 70
     0
  9
$DIMSAH
 70
     0
  9
$DIMBLK1
  1

  9
$DIMBLK2
  1

  9
$DIMSTYLE
  2
Standard
  9
$DIMCLRD
 70
     0
  9
$DIMCLRE
 70
     0
  9
$DIMCLRT
 70
     0
  9
$DIMTFAC
 40
1.0
  9
$DIMGAP
 40
0.09
  9
$DIMJUST
 70
     0
  9
$DIMSD1
 70
     0
  9
$DIMSD2
 70
     0
  9
$DIMTOLJ
 70
     1
  9
$DIMTZIN
 70
     0
  9
$DIMALTZ
 70
     0
  9
$DIMALTTZ
 70
     0
  9
$DIMUPT
 70
     0
  9
$DIMDEC
 70
     4
  9
$DIMTDEC
 70
     4
  9
$DIMALTU
 70
     2
  9
$DIMALTTD
 70
     2
  9
$DIMTXSTY
  7
Standard
  9
$DIMAUNIT
 70
     0
  9
$DIMADEC
 70
     0
  9
$DIMALTRND
 40
0.0
  9
$DIMAZIN
 70
     0
  9
$DIMDSEP
 70
    46
  9
$DIMATFIT
 70
     3
  9
$DIMFRAC
 70
     0
  9
$DIMLDRBLK
  1

  9
$DIMLUNIT
 70
     2
  9
$DIMLWD
 70
    -2
  9
$DIMLWE
 70
    -2
  9
$DIMTMOVE
 70
     0
  9
$LUNITS
 70
     4
  9
$LUPREC
 70
     4
  9
$SKETCHINC
 40
0.1
  9
$FILLETRAD
 40
0.5
  9
$AUNITS
 70
     0
  9
$AUPREC
 70
     0
  9
$MENU
  1
.
  9
$ELEVATION
 40
0.0
  9
$PELEVATION
 40
0.0
  9
$THICKNESS
 40
0.0
  9
$LIMCHECK
 70
     0
  9
$CHAMFERA
 40
0.5
  9
$CHAMFERB
 40
0.5
  9
$CHAMFERC
 40
1.0
  9
$CHAMFERD
 40
0.0
  9
$SKPOLY
 70
     0
  9
$TDCREATE
 40
2455343.56230316
  9
$TDUCREATE
 40
2455343.728969826
  9
$TDUPDATE
 40
2455343.562303171
  9
$TDUUPDATE
 40
2455343.728969838
  9
$TDINDWG
 40
0.0000000116
  9
$TDUSRTIMER
 40
0.0000000116
  9
$USRTIMER
 70
     1
  9
$ANGBASE
 50
0.0
  9
$ANGDIR
 70
     0
  9
$PDMODE
 70
     0
  9
$PDSIZE
 40
0.0
  9
$PLINEWID
 40
0.0
  9
$SPLFRAME
 70
     0
  9
$SPLINETYPE
 70
     6
  9
$SPLINESEGS
 70
     8
  9
$HANDSEED
  5
000200CA
  9
$SURFTAB1
 70
     6
  9
$SURFTAB2
 70
     6
  9
$SURFTYPE
 70
     6
  9
$SURFU
 70
     6
  9
$SURFV
 70
     6
  9
$UCSBASE
  2

  9
$UCSNAME
  2

  9
$UCSORG
 10
0.0
 20
0.0
 30
0.0
  9
$UCSXDIR
 10
1.0
 20
0.0
 30
0.0
  9
$UCSYDIR
 10
0.0
 20
1.0
 30
0.0
  9
$UCSORTHOREF
  2

  9
$UCSORTHOVIEW
 70
     0
  9
$UCSORGTOP
 10
0.0
 20
0.0
 30
0.0
  9
$UCSORGBOTTOM
 10
0.0
 20
0.0
 30
0.0
  9
$UCSORGLEFT
 10
0.0
 20
0.0
 30
0.0
  9
$UCSORGRIGHT
 10
0.0
 20
0.0
 30
0.0
  9
$UCSORGFRONT
 10
0.0
 20
0.0
 30
0.0
  9
$UCSORGBACK
 10
0.0
 20
0.0
 30
0.0
  9
$PUCSBASE
  2

  9
$PUCSNAME
  2

  9
$PUCSORG
 10
0.0
 20
0.0
 30
0.0
  9
$PUCSXDIR
 10
1.0
 20
0.0
 30
0.0
  9
$PUCSYDIR
 10
0.0
 20
1.0
 30
0.0
  9
$PUCSORTHOREF
  2

  9
$PUCSORTHOVIEW
 70
     0
  9
$PUCSORGTOP
 10
0.0
 20
0.0
 30
0.0
  9
$PUCSORGBOTTOM
 10
0.0
 20
0.0
 30
0.0
  9
$PUCSORGLEFT
 10
0.0
 20
0.0
 30
0.0
  9
$PUCSORGRIGHT
 10
0.0
 20
0.0
 30
0.0
  9
$PUCSORGFRONT
 10
0.0
 20
0.0
 30
0.0
  9
$PUCSORGBACK
 10
0.0
 20
0.0
 30
0.0
  9
$USERI1
 70
     0
  9
$USERI2
 70
     0
  9
$USERI3
 70
     0
  9
$USERI4
 70
     0
  9
$USERI5
 70
     0
  9
$USERR1
 40
0.0
  9
$USERR2
 40
0.0
  9
$USERR3
 40
0.0
  9
$USERR4
 40
0.0
  9
$USERR5
 40
0.0
  9
$WORLDVIEW
 70
     1
  9
$SHADEDGE
 70
     3
  9
$SHADEDIF
 70
    70
  9
$TILEMODE
 70
     1
  9
$MAXACTVP
 70
    64
  9
$PINSBASE
 10
0.0
 20
0.0
 30
0.0
  9
$PLIMCHECK
 70
     0
  9
$PEXTMIN
 10
1.000000000000000E+20
 20
1.000000000000000E+20
 30
1.000000000000000E+20
  9
$PEXTMAX
 10
-1.000000000000000E+20
 20
-1.000000000000000E+20
 30
-1.000000000000000E+20
  9
$PLIMMIN
 10
0.0
 20
0.0
  9
$PLIMMAX
 10
12.0
 20
9.0
  9
$UNITMODE
 70
     0
  9
$VISRETAIN
 70
     1
  9
$PLINEGEN
 70
     0
  9
$PSLTSCALE
 70
     1
  9
$TREEDEPTH
 70
  3020
  9
$CMLSTYLE
  2
Standard
  9
$CMLJUST
 70
     0
  9
$CMLSCALE
 40
1.0
  9
$PROXYGRAPHICS
 70
     1
  9
$MEASUREMENT
 70
     0
  9
$CELWEIGHT
370
    -1
  9
$ENDCAPS
280
     0
  9
$JOINSTYLE
280
     0
  9
$LWDISPLAY
290
     0
  9
$INSUNITS
 70
     1
  9
$HYPERLINKBASE
  1

  9
$STYLESHEET
  1

  9
$XEDIT
290
     1
  9
$CEPSNTYPE
380
     0
  9
$PSTYLEMODE
290
     1
  9
$FINGERPRINTGUID
  2
{E7F7769E-AACA-40AB-9EF3-61BBAFBCBA26}
  9
$VERSIONGUID
  2
{FAEB1C32-E019-11D5-929B-00C0DF256EC4}
  9
$EXTNAMES
290
     1
  9
$PSVPSCALE
 40
0.0
  9
$OLESTARTUP
290
     0
  9
$SORTENTS
280
   127
  9
$INDEXCTL
280
     0
  9
$HIDETEXT
280
     1
  9
$XCLIPFRAME
290
     0
  9
$HALOGAP
280
     0
  9
$OBSCOLOR
 70
   257
  9
$OBSLTYPE
280
     0
  9
$INTERSECTIONDISPLAY
280
     0
  9
$INTERSECTIONCOLOR
 70
   257
  9
$DIMASSOC
280
     2
  9
$PROJECTNAME
  1

  0
ENDSEC
  0
SECTION
  2
CLASSES
  0
CLASS
  1
ACDBDICTIONARYWDFLT
  2
AcDbDictionaryWithDefault
  3
ObjectDBX Classes
 90
        0
 91
        4
280
     0
281
     0
  0
CLASS
  1
VISUALSTYLE
  2
AcDbVisualStyle
  3
ObjectDBX Classes
 90
     4095
 91
        4
280
     0
281
     0
  0
ENDSEC
  0
SECTION
  2
TABLES
  0
TABLE
  2
VPORT
  5
8
330
0
100
AcDbSymbolTable
 70
     1
  0
VPORT
  5
29
330
8
100
AcDbSymbolTableRecord
100
AcDbViewportTableRecord
  2
*Active
 70
     0
 10
0.0
 20
0.0
 11
1.0
 21
1.0
 12
80.25
 22
106.4409457059851
 13
0.0
 23
0.0
 14
0.5
 24
0.5
 15
0.5
 25
0.5
 16
0.0
 26
0.0
 36
1.0
 17
0.0
 27
0.0
 37
0.0
 40
113.3818914119703
 41
0.8863849310366128
 42
50.0
 43
0.0
 44
0.0
 50
0.0
 51
0.0
 71
     0
 72
  1000
 73
     1
 74
     3
 75
     0
 76
     0
 77
     0
 78
     0
281
     0
 65
     1
110
0.0
120
0.0
130
0.0
111
1.0
121
0.0
131
0.0
112
0.0
122
1.0
132
0.0
 79
     0
146
0.0
  0
ENDTAB
  0
TABLE
  2
LTYPE
  5
5
330
0
100
AcDbSymbolTable
 70
     1
  0
LTYPE
  5
14
330
5
100
AcDbSymbolTableRecord
100
AcDbLinetypeTableRecord
  2
ByBlock
 70
     0
  3

 72
    65
 73
     0
 40
0.0
  0
LTYPE
  5
15
330
5
100
AcDbSymbolTableRecord
100
AcDbLinetypeTableRecord
  2
ByLayer
 70
     0
  3

 72
    65
 73
     0
 40
0.0
  0
LTYPE
  5
16
330
5
100
AcDbSymbolTableRecord
100
AcDbLinetypeTableRecord
  2
Continuous
 70
     0
  3
Solid line
 72
    65
 73
     0
 40
0.0
  0
ENDTAB
  0
TABLE
  2
LAYER
  5
2
330
0
100
AcDbSymbolTable
 70
     1
  0
LAYER
  5
10
330
2
100
AcDbSymbolTableRecord
100
AcDbLayerTableRecord
  2
0
 70
     0
 62
     7
  6
Continuous
370
    -3
390
F
  0
ENDTAB
  0
TABLE
  2
STYLE
  5
3
330
0
100
AcDbSymbolTable
 70
     1
  0
STYLE
  5
11
330
3
100
AcDbSymbolTableRecord
100
AcDbTextStyleTableRecord
  2
Standard
 70
     0
 40
0.0
 41
1.0
 50
0.0
 71
     0
 42
0.2
  3
txt
  4

  0
ENDTAB
  0
TABLE
  2
VIEW
  5
6
330
0
100
AcDbSymbolTable
 70
     0
  0
ENDTAB
  0
TABLE
  2
UCS
  5
7
330
0
100
AcDbSymbolTable
 70
     0
  0
ENDTAB
  0
TABLE
  2
APPID
  5
9
330
0
100
AcDbSymbolTable
 70
     1
  0
APPID
  5
12
330
9
100
AcDbSymbolTableRecord
100
AcDbRegAppTableRecord
  2
ACAD
 70
     0
  0
ENDTAB
  0
TABLE
  2
DIMSTYLE
  5
A
330
0
100
AcDbSymbolTable
 70
     1
100
AcDbDimStyleTable
  0
DIMSTYLE
105
27
330
A
100
AcDbSymbolTableRecord
100
AcDbDimStyleTableRecord
  2
Standard
 70
     0
340
11
  0
ENDTAB
  0
TABLE
  2
BLOCK_RECORD
  5
1
330
0
100
AcDbSymbolTable
 70
     1
  0
BLOCK_RECORD
  5
1F
330
1
100
AcDbSymbolTableRecord
100
AcDbBlockTableRecord
  2
*Model_Space
340
22
  0
BLOCK_RECORD
  5
1B
330
1
100
AcDbSymbolTableRecord
100
AcDbBlockTableRecord
  2
*Paper_Space
340
1E
  0
BLOCK_RECORD
  5
23
330
1
100
AcDbSymbolTableRecord
100
AcDbBlockTableRecord
  2
*Paper_Space0
340
26
  0
ENDTAB
  0
ENDSEC
  0
SECTION
  2
BLOCKS
  0
BLOCK
  5
20
330
1F
100
AcDbEntity
  8
0
100
AcDbBlockBegin
  2
*Model_Space
 70
     0
 10
0.0
 20
0.0
 30
0.0
  3
*Model_Space
  1

  0
ENDBLK
  5
21
330
1F
100
AcDbEntity
  8
0
100
AcDbBlockEnd
  0
BLOCK
  5
1C
330
1B
100
AcDbEntity
 67
     1
  8
0
100
AcDbBlockBegin
  2
*Paper_Space
 70
     0
 10
0.0
 20
0.0
 30
0.0
  3
*Paper_Space
  1

  0
ENDBLK
  5
1D
330
1B
100
AcDbEntity
 67
     1
  8
0
100
AcDbBlockEnd
  0
BLOCK
  5
24
330
23
100
AcDbEntity
  8
0
100
AcDbBlockBegin
  2
*Paper_Space0
 70
     0
 10
0.0
 20
0.0
 30
0.0
  3
*Paper_Space0
  1

  0
ENDBLK
  5
25
330
23
100
AcDbEntity
  8
0
100
AcDbBlockEnd
  0
ENDSEC
  0
SECTION
  2
ENTITIES
  0
LWPOLYLINE
  5
20000
  8
0
100
AcDbEntity
100
AcDbPolyline
 70
0
 90
15
 62
7
370
0
 10
75736164.0040001
 20
23392920.0039982
 10
75736632.0040001
 20
23393256.0039982
 10
75736684.8040001
 20
23393284.287998
 10
75736742.2240001
 20
23393301.3519982
 10
75736801.9000002
 20
23393306.4999982
 10
75736861.3840001
 20
23393299.5279983
 10
75736918.2520001
 20
23393280.7239983
 10
75736970.1640002
 20
23393250.8439981
 10
75737014.9960001
 20
23393211.1239983
 10
75737028.0040001
 20
23393196.0039982
 10
75737592.004
 20
23392680.0039982
 10
75737604.676
 20
23392668.7599981
 10
75737004.0040001
 20
23391996.0039982
 10
75736871.8120001
 20
23391888.2919982
 10
75736164.0040001
 20
23392920.0039982
  0
LWPOLYLINE
  5
20001
  8
0
100
AcDbEntity
100
AcDbPolyline
 70
0
 90
22
 62
7
370
0
 10
75737882.6920001
 20
23404525.7439981
 10
75736741.8880001
 20
23403817.1799983
 10
75736608.0040001
 20
23404032.0039981
 10
75736260.0040001
 20
23404584.0039982
 10
75736361.008
 20
23404648.0959982
 10
75737376.0040001
 20
23405292.0039981
 10
75737393.8
 20
23405263.5519981
 10
75737427.5560001
 20
23405213.9679981
 10
75737461.228
 20
23405164.2879979
 10
75737494.8040001
 20
23405114.5599982
 10
75737528.2840001
 20
23405064.7719982
 10
75737561.6920002
 20
23405014.9479983
 10
75737595.0040001
 20
23404965.0279982
 10
75737628.2200002
 20
23404915.0599981
 10
75737661.3520001
 20
23404865.0439982
 10
75737694.3760001
 20
23404814.9559983
 10
75737727.3400001
 20
23404764.8199982
 10
75737760.2080001
 20
23404714.6119982
 10
75737792.98
 20
23404664.3559981
 10
75737825.6680001
 20
23404614.0399982
 10
75737858.26
 20
23404563.6639982
 10
75737882.6920001
 20
23404525.7439981
  0
LWPOLYLINE
  5
20002
  8
0
100
AcDbEntity
100
AcDbPolyline
 70
0
 90
18
 62
7
370
0
 10
75736312.204
 20
23395861.6359983
 10
75737397.2920001
 20
23396283.6759982
 10
75737688.004
 20
23395548.003998
 10
75736630.4440002
 20
23395091.3199982
 10
75736611.2800001
 20
23395134.5319981
 10
75736587.16
 20
23395189.4799981
 10
75736563.2680001
 20
23395244.5119982
 10
75736539.58
 20
23395299.6399982
 10
75736516.0960001
 20
23395354.8519981
 10
75736492.84
 20
23395410.1599981
 10
75736469.788
 20
23395465.5639981
 10
75736446.9520001
 20
23395521.0399982
 10
75736424.3320002
 20
23395576.6119982
 10
75736401.9280001
 20
23395632.2799982
 10
75736379.728
 20
23395688.0199981
 10
75736357.7560001
 20
23395743.8439981
 10
75736336.0000001
 20
23395799.7639982
 10
75736312.204
 20
23395861.6359983
  0
LWPOLYLINE
  5
20003
  8
0
100
AcDbEntity
100
AcDbPolyline
 70
0
 90
7
 62
7
370
0
 10
75736438.024
 20
23409150.6519981
 10
75737424.0040001
 20
23409444.0039981
 10
75737738.356
 20
23408425.0599982
 10
75737772.004
 20
23408316.0039982
 10
75736788.004
 20
23408004.0039982
 10
75736754.7760002
 20
23408112.8559981
 10
75736438.024
 20
23409150.6519981
  0
LWPOLYLINE
  5
20004
  8
0
100
AcDbEntity
100
AcDbPolyline
 70
0
 90
21
 62
7
370
0
 10
75737760.0040001
 20
23391179.9919982
 10
75737716.8280001
 20
23391131.1519983
 10
75737672.4520001
 20
23391090.7719981
 10
75737627.7760001
 20
23391050.7279982
 10
75737582.8
 20
23391011.0079982
 10
75737537.548
 20
23390971.6119982
 10
75737491.996
 20
23390932.551998
 10
75737446.1680001
 20
23390893.8279981
 10
75737400.052
 20
23390855.439998
 10
75737353.6720001
 20
23390817.3999983
 10
75737306.992
 20
23390779.6839982
 10
75737260.0480001
 20
23390742.3279982
 10
75737212.816
 20
23390705.3079982
 10
75737165.3320001
 20
23390668.6359983
 10
75737117.5720001
 20
23390632.3119981
 10
75737069.5600001
 20
23390596.3479982
 10
75737028.004
 20
23390568.0039981
 10
75736356.0040001
 20
23391468.0039982
 10
75736871.8120001
 20
23391888.2919982
 10
75737004.0040001
 20
23391996.0039982
 10
75737760.0040001
 20
23391179.9919982
  0
LWPOLYLINE
  5
20005
  8
0
100
AcDbEntity
100
AcDbPolyline
 70
0
 90
20
 62
7
370
0
 10
75737496.0040001
 20
23399400.0039982
 10
75737527.1800002
 20
23399340.0759981
 10
75737559.328
 20
23399289.4119982
 10
75737591.1040001
 20
23399238.5199982
 10
75737622.5200001
 20
23399187.3999983
 10
75737653.564
 20
23399136.051998
 10
75737684.2360001
 20
23399084.4879981
 10
75737714.524
 20
23399032.6959982
 10
75737744.452
 20
23398980.687998
 10
75737773.9840002
 20
23398928.4639982
 10
75737803.156
 20
23398876.0359981
 10
75737831.9440001
 20
23398823.3919982
 10
75737860.3360001
 20
23398770.5319983
 10
75737888.356
 20
23398717.4799981
 10
75737915.992
 20
23398664.2239982
 10
75737943.2440001
 20
23398610.7759982
 10
75737952.004
 20
23398596.0039982
 10
75736732.384
 20
23397944.8959981
 10
75736428.0040001
 20
23398692.0039982
 10
75737496.0040001
 20
23399400.0039982
  0
LWPOLYLINE
  5
20006
  8
0
100
AcDbEntity
100
AcDbPolyline
 70
0
 90
19
 62
7
370
0
 10
75738201.8680001
 20
23412912.0519981
 10
75738201.424
 20
23412883.7799982
 10
75738200.8600002
 20
23412823.7799982
 10
75738200.716
 20
23412763.7799983
 10
75738200.968
 20
23412703.7799983
 10
75738201.6160001
 20
23412643.7799982
 10
75738202.66
 20
23412583.7919982
 10
75738204.1240001
 20
23412523.8039983
 10
75738205.9720001
 20
23412463.8399983
 10
75738208.228
 20
23412403.8759982
 10
75738210.8920001
 20
23412343.9359981
 10
75738213.94
 20
23412284.0199981
 10
75738217.408
 20
23412224.1279982
 10
75738221.26
 20
23412164.2479982
 10
75738228.0160001
 20
23412144.0039982
 10
75736752.0040001
 20
23412036.0039982
 10
75736632.0040001
 20
23412696.0039981
 10
75736632.004
 20
23412948.0039981
 10
75738201.8680001
 20
23412912.0519981
  0
LWPOLYLINE
  5
20007
  8
0
100
AcDbEntity
100
AcDbPolyline
 70
0
 90
19
 62
7
370
0
 10
75738247.0000001
 20
23413680.5679982
 10
75738245.1160001
 20
23413662.3039982
 10
75738239.344
 20
23413602.5799981
 10
75738233.98
 20
23413542.8199982
 10
75738229.024
 20
23413483.023998
 10
75738224.4520001
 20
23413423.2039981
 10
75738220.3
 20
23413363.3479982
 10
75738216.5320001
 20
23413303.4679981
 10
75738213.172
 20
23413243.5639981
 10
75738210.2080001
 20
23413183.6359982
 10
75738207.6520002
 20
23413123.6839981
 10
75738205.4920001
 20
23413063.731998
 10
75738203.7280001
 20
23413003.7559981
 10
75738202.372
 20
23412943.7679981
 10
75738201.8680001
 20
23412912.0519981
 10
75736632.004
 20
23412948.0039981
 10
75736637.9560001
 20
23413451.9559982
 10
75736641.1720001
 20
23413860.0279983
 10
75738247.0000001
 20
23413680.5679982
  0
LWPOLYLINE
  5
20008
  8
0
100
AcDbEntity
100
AcDbPolyline
 70
0
 90
19
 62
7
370
0
 10
75738312.0040001
 20
23411364.0039981
 10
75736920.0040001
 20
23411112.0039982
 10
75736767.1720001
 20
23411952.579998
 10
75736752.0040001
 20
23412036.0039982
 10
75738228.0160001
 20
23412144.0039982
 10
75738225.5200001
 20
23412104.3919982
 10
75738230.1880001
 20
23412044.5719982
 10
75738235.2400001
 20
23411984.7879981
 10
75738240.7000001
 20
23411925.0399983
 10
75738246.5680001
 20
23411865.3279981
 10
75738252.8320001
 20
23411805.6519981
 10
75738259.48
 20
23411746.0239981
 10
75738266.536
 20
23411686.4439982
 10
75738274.0000001
 20
23411626.8999982
 10
75738281.8480001
 20
23411567.4159982
 10
75738290.104
 20
23411507.9919982
 10
75738298.756
 20
23411448.6159981
 10
75738307.8040001
 20
23411389.2999981
 10
75738312.0040001
 20
23411364.0039981
  0
LWPOLYLINE
  5
20009
  8
0
100
AcDbEntity
100
AcDbPolyline
 70
0
 90
21
 62
7
370
0
 10
75737833.9000001
 20
23395250.3799982
 10
75737988.0040001
 20
23394936.0039981
 10
75737039.0320001
 20
23394299.3919982
 10
75737015.788
 20
23394336.3399981
 10
75736983.3400001
 20
23394386.8119981
 10
75736951.8760001
 20
23394437.8959981
 10
75736921.396
 20
23394489.5799981
 10
75736891.9240001
 20
23394541.8399981
 10
75736863.4480001
 20
23394594.6519982
 10
75736836.004
 20
23394648.0039981
 10
75736811.7640001
 20
23394698.4279982
 10
75736785.9520001
 20
23394752.607998
 10
75736760.38
 20
23394806.8599982
 10
75736735.0000001
 20
23394861.2439981
 10
75736709.8360001
 20
23394915.7119981
 10
75736684.8880002
 20
23394970.2759983
 10
75736660.132
 20
23395024.9239982
 10
75736635.604
 20
23395079.6919982
 10
75736630.4440002
 20
23395091.3199982
 10
75737688.004
 20
23395548.003998
 10
75737833.9000001
 20
23395250.3799982
  0
LWPOLYLINE
  5
2000A
  8
0
100
AcDbEntity
100
AcDbPolyline
 70
0
 90
19
 62
7
370
0
 10
75738289.8520001
 20
23403877.1439981
 10
75737163.496
 20
23403146.2719981
 10
75737112.1000001
 20
23403228.0639981
 10
75736741.8880001
 20
23403817.1799983
 10
75737882.6920001
 20
23404525.7439981
 10
75737890.756
 20
23404513.2279981
 10
75737923.1680001
 20
23404462.7439981
 10
75737955.496
 20
23404412.1879982
 10
75737987.728
 20
23404361.5839982
 10
75738019.8640001
 20
23404310.9199982
 10
75738051.9160002
 20
23404260.1959982
 10
75738083.8719999
 20
23404209.4119981
 10
75738115.744
 20
23404158.5799982
 10
75738147.52
 20
23404107.675998
 10
75738179.2
 20
23404056.7359982
 10
75738210.796
 20
23404005.7239981
 10
75738242.296
 20
23403954.6639983
 10
75738273.7120001
 20
23403903.5439981
 10
75738289.8520001
 20
23403877.1439981
  0
LWPOLYLINE
  5
2000B
  8
0
100
AcDbEntity
100
AcDbPolyline
 70
0
 90
13
 62
7
370
0
 10
75738050.0560001
 20
23407861.2519981
 10
75737264.1400001
 20
23406762.9759981
 10
75737253.004
 20
23406771.5439982
 10
75737203.036
 20
23406804.7239982
 10
75737150.872
 20
23406834.3399982
 10
75737096.7640001
 20
23406860.2359981
 10
75737040.976
 20
23406882.2919981
 10
75736983.7840001
 20
23406900.3999982
 10
75736925.4760001
 20
23406914.4759982
 10
75736883.5840001
 20
23406921.5319982
 10
75736788.004
 20
23408004.0039982
 10
75737772.004
 20
23408316.0039982
 10
75738050.0560001
 20
23407861.2519981
  0
LWPOLYLINE
  5
2000C
  8
0
100
AcDbEntity
100
AcDbPolyline
 70
0
 90
18
 62
7
370
0
 10
75736692.0040001
 20
23389488.0039981
 10
75736741.1920002
 20
23389512.5679982
 10
75736793.56
 20
23389541.8479982
 10
75736845.7000001
 20
23389571.5479981
 10
75736897.5760001
 20
23389601.6919983
 10
75736949.2000001
 20
23389632.255998
 10
75737000.5720001
 20
23389663.2519982
 10
75737051.6920001
 20
23389694.6799982
 10
75737102.536
 20
23389726.5279983
 10
75737153.1280001
 20
23389758.7959982
 10
75737203.4320001
 20
23389791.4839983
 10
75737253.4720001
 20
23389824.5919981
 10
75737303.2360001
 20
23389858.1079981
 10
75737352.7240001
 20
23389892.0439982
 10
75737375.872
 20
23389908.1959981
 10
75738132.004
 20
23388744.0039981
 10
75737555.7280001
 20
23387868.5079981
 10
75736692.0040001
 20
23389488.0039981
  0
LWPOLYLINE
  5
2000D
  8
0
100
AcDbEntity
100
AcDbPolyline
 70
0
 90
22
 62
7
370
0
 10
75738344.4160001
 20
23397746.8839981
 10
75737019.1840001
 20
23397236.5119982
 10
75736956.0040001
 20
23397396.0039981
 10
75736789.5280001
 20
23397804.6279982
 10
75736732.384
 20
23397944.8959981
 10
75737952.004
 20
23398596.0039982
 10
75737970.1000001
 20
23398557.1239982
 10
75737996.5840001
 20
23398503.2679982
 10
75738022.6720001
 20
23398449.2439981
 10
75738048.3640001
 20
23398395.0159982
 10
75738073.66
 20
23398340.6199981
 10
75738098.5600001
 20
23398286.0319982
 10
75738123.0760001
 20
23398231.2639982
 10
75738147.1840001
 20
23398176.3279981
 10
75738168.0040001
 20
23398128.0039981
 10
75738194.2240001
 20
23398074.0399982
 10
75738220.108
 20
23398019.9079981
 10
75738245.644
 20
23397965.6079981
 10
75738270.844
 20
23397911.1639982
 10
75738295.7080001
 20
23397856.5519981
 10
75738320.2360001
 20
23397801.7959982
 10
75738344.4160001
 20
23397746.8839981
  0
LWPOLYLINE
  5
2000E
  8
0
100
AcDbEntity
100
AcDbPolyline
 70
0
 90
22
 62
7
370
0
 10
75738420.0040001
 20
23410800.0039982
 10
75738427.9480001
 20
23410761.2439981
 10
75738429.868
 20
23410701.3759983
 10
75738419.5480001
 20
23410642.3839981
 10
75738397.4320001
 20
23410586.7159982
 10
75738364.4560001
 20
23410536.7239982
 10
75738321.976
 20
23410494.4959981
 10
75738271.7920001
 20
23410461.7839981
 10
75738216.0040001
 20
23410440.003998
 10
75737208.3040002
 20
23410139.0079981
 10
75736920.0040001
 20
23411112.0039982
 10
75738312.0040001
 20
23411364.0039981
 10
75738317.2360001
 20
23411330.0559982
 10
75738327.088
 20
23411270.8599982
 10
75738337.3120001
 20
23411211.7479982
 10
75738347.9440001
 20
23411152.6959982
 10
75738358.9720001
 20
23411093.7159982
 10
75738370.396
 20
23411034.8079982
 10
75738382.204
 20
23410975.9839983
 10
75738394.4080001
 20
23410917.2439982
 10
75738407.008
 20
23410858.575998
 10
75738420.0040001
 20
23410800.0039982
  0
LWPOLYLINE
  5
2000F
  8
0
100
AcDbEntity
100
AcDbPolyline
 70
0
 90
19
 62
7
370
0
 10
75738600.0160001
 20
23397000.0039982
 10
75737325.964
 20
23396464.1919982
 10
75737100.0040001
 20
23397036.0039982
 10
75737019.1840001
 20
23397236.5119982
 10
75738344.4160001
 20
23397746.8839981
 10
75738368.2480002
 20
23397691.8159981
 10
75738391.7200002
 20
23397636.627998
 10
75738414.88
 20
23397581.2599982
 10
75738437.6920001
 20
23397525.7599981
 10
75738460.132
 20
23397470.1159981
 10
75738482.2480002
 20
23397414.3279982
 10
75738503.9920001
 20
23397358.4199982
 10
75738525.3880001
 20
23397302.3679981
 10
75738546.4480001
 20
23397246.1839982
 10
75738567.148
 20
23397189.8679981
 10
75738587.5000001
 20
23397133.4199982
 10
75738600.1600001
 20
23397073.3599982
 10
75738600.16
 20
23397013.4559983
 10
75738600.0160001
 20
23397000.0039982
  0
LWPOLYLINE
  5
20010
  8
0
100
AcDbEntity
100
AcDbPolyline
 70
0
 90
25
 62
7
370
0
 10
75738276.004
 20
23391696.0039981
 10
75738265.8880001
 20
23391684.7599981
 10
75738225.5440001
 20
23391640.3359981
 10
75738184.8880002
 20
23391596.2239982
 10
75738143.9080001
 20
23391552.3999983
 10
75738102.604
 20
23391508.8759982
 10
75738060.976
 20
23391465.6639982
 10
75738019.024
 20
23391422.7519981
 10
75737976.784
 20
23391380.1519982
 10
75737934.232
 20
23391337.8639982
 10
75737891.356
 20
23391295.8879982
 10
75737848.1800002
 20
23391254.2239982
 10
75737804.6920002
 20
23391212.883998
 10
75737760.0040001
 20
23391179.9919982
 10
75737004.0040001
 20
23391996.0039982
 10
75737604.676
 20
23392668.7599981
 10
75738228.0160002
 20
23392116.0039981
 10
75738273.4000001
 20
23392076.9439982
 10
75738309.4720002
 20
23392029.1479981
 10
75738334.564
 20
23391974.7759982
 10
75738347.5600001
 20
23391916.2999981
 10
75738347.8360001
 20
23391856.4199981
 10
75738335.3920001
 20
23391797.8359982
 10
75738310.8040001
 20
23391743.2359981
 10
75738276.004
 20
23391696.0039981
  0
LWPOLYLINE
  5
20011
  8
0
100
AcDbEntity
100
AcDbPolyline
 70
0
 90
20
 62
7
370
0
 10
75738432.0040001
 20
23394372.0039982
 10
75737583.58
 20
23393595.2799982
 10
75737567.5000001
 20
23393613.2439981
 10
75737527.996
 20
23393658.3999983
 10
75737488.996
 20
23393703.9999981
 10
75737450.5120002
 20
23393750.0319982
 10
75737412.5560001
 20
23393796.5079981
 10
75737375.116
 20
23393843.3919981
 10
75737338.2160001
 20
23393890.6959983
 10
75737301.844
 20
23393938.4199982
 10
75737266.024
 20
23393986.551998
 10
75737230.732
 20
23394035.079998
 10
75737189.6560001
 20
23394091.6839982
 10
75737152.204
 20
23394138.5439982
 10
75737116.0600001
 20
23394186.4479981
 10
75737081.3080001
 20
23394235.3479982
 10
75737047.9480001
 20
23394285.2079982
 10
75737039.0320001
 20
23394299.3919982
 10
75737988.0040001
 20
23394936.0039981
 10
75738432.0040001
 20
23394372.0039982
  0
LWPOLYLINE
  5
20012
  8
0
100
AcDbEntity
100
AcDbPolyline
 70
0
 90
23
 62
7
370
0
 10
75738516.0040001
 20
23402952.0039981
 10
75737639.8360001
 20
23402388.2679982
 10
75737163.496
 20
23403146.2719981
 10
75738289.8520001
 20
23403877.1439981
 10
75738305.032
 20
23403852.3639981
 10
75738336.268
 20
23403801.1239982
 10
75738367.396
 20
23403749.8359982
 10
75738398.452
 20
23403698.4999982
 10
75738429.4000002
 20
23403647.1039981
 10
75738460.2640001
 20
23403595.6479981
 10
75738491.0320001
 20
23403544.131998
 10
75738521.704
 20
23403492.5679983
 10
75738552.2920001
 20
23403440.9559983
 10
75738582.7840001
 20
23403389.271998
 10
75738600.0160001
 20
23403360.0039982
 10
75738630.2680001
 20
23403308.3319982
 10
75738648.844
 20
23403251.4039983
 10
75738654.88
 20
23403191.8239981
 10
75738648.0760001
 20
23403132.3159981
 10
75738628.7680001
 20
23403075.6399981
 10
75738597.8320002
 20
23403024.3639982
 10
75738556.6840001
 20
23402980.8519982
 10
75738516.0040001
 20
23402952.0039981
  0
LWPOLYLINE
  5
20013
  8
0
100
AcDbEntity
100
AcDbPolyline
 70
0
 90
13
 62
7
370
0
 10
75738561.5320001
 20
23401078.4559982
 10
75737546.2960001
 20
23400421.4919981
 10
75737208.0040001
 20
23400960.003998
 10
75737178.7120001
 20
23401012.2519982
 10
75737160.5560001
 20
23401069.3239981
 10
75737154.268
 20
23401128.8919981
 10
75737160.1000001
 20
23401188.5079981
 10
75737177.8360001
 20
23401245.7119981
 10
75737206.732
 20
23401298.1879981
 10
75737245.6120001
 20
23401343.7519982
 10
75737292.0040001
 20
23401380.0039981
 10
75738060.0040001
 20
23401872.0039981
 10
75738561.5320001
 20
23401078.4559982
  0
LWPOLYLINE
  5
20014
  8
0
100
AcDbEntity
100
AcDbPolyline
 70
0
 90
16
 62
7
370
0
 10
75738190.7080002
 20
23407631.2119982
 10
75738645.9040001
 20
23406886.7199983
 10
75737616.004
 20
23406252.0039982
 10
75737588.116
 20
23406296.4639982
 10
75737564.632
 20
23406351.6639983
 10
75737544.0040001
 20
23406408.0039981
 10
75737522.4880001
 20
23406454.8519982
 10
75737493.9760001
 20
23406507.6279982
 10
75737461.8400001
 20
23406558.2919983
 10
75737426.26
 20
23406606.5799981
 10
75737387.392
 20
23406652.2639982
 10
75737345.4040001
 20
23406695.1279982
 10
75737300.5360001
 20
23406734.9439982
 10
75737264.1400001
 20
23406762.9759981
 10
75738050.0560001
 20
23407861.2519981
 10
75738190.7080002
 20
23407631.2119982
  0
LWPOLYLINE
  5
20015
  8
0
100
AcDbEntity
100
AcDbPolyline
 70
0
 90
19
 62
7
370
0
 10
75738720.0040001
 20
23396364.0039981
 10
75737833.9000001
 20
23395250.3799982
 10
75737688.004
 20
23395548.003998
 10
75737397.2920001
 20
23396283.6759982
 10
75737325.964
 20
23396464.1919982
 10
75738600.0160001
 20
23397000.0039982
 10
75738588.0040001
 20
23396954.8119982
 10
75738564.1960001
 20
23396899.8519982
 10
75738552.004
 20
23396880.0039983
 10
75738542.6680001
 20
23396820.7599981
 10
75738539.884
 20
23396760.8559981
 10
75738543.688
 20
23396701.0119982
 10
75738554.032
 20
23396641.9359982
 10
75738570.796
 20
23396584.3599982
 10
75738593.7760001
 20
23396528.9679981
 10
75738622.6960001
 20
23396476.4319982
 10
75738657.2080001
 20
23396427.3879982
 10
75738696.8920001
 20
23396382.4239981
 10
75738720.0040001
 20
23396364.0039981
  0
LWPOLYLINE
  5
20016
  8
0
100
AcDbEntity
100
AcDbPolyline
 70
0
 90
22
 62
7
370
0
 10
75738852.0040001
 20
23409576.0039981
 10
75738872.704
 20
23409519.6879982
 10
75738893.8240001
 20
23409463.5279983
 10
75738915.3640001
 20
23409407.5239981
 10
75738937.3
 20
23409351.6879981
 10
75738959.6560001
 20
23409296.0079981
 10
75738982.4200001
 20
23409240.4839983
 10
75739005.58
 20
23409185.1399982
 10
75739029.1600001
 20
23409129.9639982
 10
75739053.148
 20
23409074.9559983
 10
75739077.532
 20
23409020.1519982
 10
75737738.356
 20
23408425.0599982
 10
75737424.0040001
 20
23409444.0039981
 10
75738480.0040001
 20
23409756.0039981
 10
75738539.392
 20
23409763.9719983
 10
75738599.2360002
 20
23409761.0919981
 10
75738657.592
 20
23409747.4719982
 10
75738712.5160001
 20
23409723.5439982
 10
75738762.232
 20
23409690.0999982
 10
75738805.0960002
 20
23409648.231998
 10
75738839.704
 20
23409599.3199983
 10
75738852.0040001
 20
23409576.0039981
  0
LWPOLYLINE
  5
20017
  8
0
100
AcDbEntity
100
AcDbPolyline
 70
0
 90
19
 62
7
370
0
 10
75738757.4800001
 20
23389486.755998
 10
75738732.0040001
 20
23389464.0039982
 10
75738132.004
 20
23388744.0039981
 10
75737375.872
 20
23389908.1959981
 10
75737401.924
 20
23389926.3879983
 10
75737450.8360001
 20
23389961.1399983
 10
75737499.4600001
 20
23389996.2879981
 10
75737547.796
 20
23390031.8559981
 10
75737595.8080001
 20
23390067.8079982
 10
75737643.5440001
 20
23390104.1679982
 10
75737690.968
 20
23390140.9239981
 10
75737738.08
 20
23390178.0759981
 10
75737784.9040001
 20
23390215.6119982
 10
75737831.3800001
 20
23390253.5319982
 10
75737877.5560001
 20
23390291.8359982
 10
75737923.4200001
 20
23390330.5359981
 10
75737968.9480001
 20
23390369.6199981
 10
75738000.0040001
 20
23390400.0159982
 10
75738757.4800001
 20
23389486.755998
  0
LWPOLYLINE
  5
20018
  8
0
100
AcDbEntity
100
AcDbPolyline
 70
0
 90
12
 62
7
370
0
 10
75739007.992
 20
23400372.0039982
 10
75738012.004
 20
23399712.0039981
 10
75737976.172
 20
23399761.0839982
 10
75737942.968
 20
23399811.051998
 10
75737909.4280002
 20
23399860.8039982
 10
75737875.564
 20
23399910.3399982
 10
75737841.3640001
 20
23399959.6359982
 10
75737806.8520001
 20
23400008.715998
 10
75737796.0040001
 20
23400024.0039982
 10
75737546.2960001
 20
23400421.4919981
 10
75738561.5320001
 20
23401078.4559982
 10
75739007.992
 20
23400372.0039982
  0
LWPOLYLINE
  5
20019
  8
0
100
AcDbEntity
100
AcDbPolyline
 70
0
 90
18
 62
7
370
0
 10
75739056.004
 20
23406216.0039982
 10
75738037.5280002
 20
23405568.9759982
 10
75738018.412
 20
23405599.2279981
 10
75737986.3480001
 20
23405649.9519981
 10
75737954.26
 20
23405700.6399983
 10
75737922.1360001
 20
23405751.315998
 10
75737889.9760001
 20
23405801.9799981
 10
75737857.7920001
 20
23405852.6079981
 10
75737825.5720001
 20
23405903.2239982
 10
75737793.316
 20
23405953.8159981
 10
75737761.036
 20
23406004.3959981
 10
75737728.7200002
 20
23406054.9519981
 10
75737696.3800001
 20
23406105.4839982
 10
75737664.0040001
 20
23406156.0039982
 10
75737643.3400001
 20
23406189.9879982
 10
75737616.004
 20
23406252.0039982
 10
75738645.9040001
 20
23406886.7199983
 10
75739056.004
 20
23406216.0039982
  0
LWPOLYLINE
  5
2001A
  8
0
100
AcDbEntity
100
AcDbPolyline
 70
0
 90
20
 62
7
370
0
 10
75738816.0040001
 20
23394036.0039982
 10
75739007.884
 20
23393868.7839981
 10
75738204.0040001
 20
23393004.0159983
 10
75738171.3880001
 20
23393030.6199981
 10
75738125.2840001
 20
23393068.9959981
 10
75738079.6000001
 20
23393107.911998
 10
75738034.372
 20
23393147.3319983
 10
75737989.576
 20
23393187.2559982
 10
75737945.2480001
 20
23393227.6839982
 10
75737901.3640001
 20
23393268.6039981
 10
75737857.9480001
 20
23393310.0279983
 10
75737815.0120001
 20
23393351.9199982
 10
75737772.5320001
 20
23393394.3039983
 10
75737730.5440001
 20
23393437.1679982
 10
75737689.048
 20
23393480.4879982
 10
75737648.0320001
 20
23393524.2879981
 10
75737607.52
 20
23393568.5439982
 10
75737583.58
 20
23393595.2799982
 10
75738432.0040001
 20
23394372.0039982
 10
75738816.0040001
 20
23394036.0039982
  0
LWPOLYLINE
  5
2001B
  8
0
100
AcDbEntity
100
AcDbPolyline
 70
0
 90
19
 62
7
370
0
 10
75739428.0040001
 20
23408340.0039981
 10
75738190.7080002
 20
23407631.2119982
 10
75738050.0560001
 20
23407861.2519981
 10
75737772.004
 20
23408316.0039982
 10
75737738.356
 20
23408425.0599982
 10
75739077.532
 20
23409020.1519982
 10
75739102.3240001
 20
23408965.5039982
 10
75739127.5120002
 20
23408911.0479982
 10
75739153.0960002
 20
23408856.7839982
 10
75739179.0880001
 20
23408802.6999982
 10
75739205.476
 20
23408748.8199982
 10
75739232.2480001
 20
23408695.119998
 10
75739259.4280001
 20
23408641.6239982
 10
75739286.992
 20
23408588.3319982
 10
75739314.952
 20
23408535.2559982
 10
75739343.3200001
 20
23408482.371998
 10
75739372.048
 20
23408429.703998
 10
75739401.1720001
 20
23408377.2519982
 10
75739428.0040001
 20
23408340.0039981
  0
LWPOLYLINE
  5
2001C
  8
0
100
AcDbEntity
100
AcDbPolyline
 70
0
 90
15
 62
7
370
0
 10
75738720.0040001
 20
23396364.0039981
 10
75738741.2680001
 20
23396342.0799981
 10
75738789.7960001
 20
23396306.8599982
 10
75738841.9000001
 20
23396277.1599981
 10
75738896.9440002
 20
23396253.3639983
 10
75738954.268
 20
23396235.7479982
 10
75739013.176
 20
23396224.5279983
 10
75739072.9720002
 20
23396219.8479982
 10
75739132.9000002
 20
23396221.7439981
 10
75739189.1560001
 20
23394454.9839983
 10
75738816.0040001
 20
23394036.0039982
 10
75738432.0040001
 20
23394372.0039982
 10
75737988.0040001
 20
23394936.0039981
 10
75737833.9000001
 20
23395250.3799982
 10
75738720.0040001
 20
23396364.0039981
  0
LWPOLYLINE
  5
2001D
  8
0
100
AcDbEntity
100
AcDbPolyline
 70
0
 90
21
 62
7
370
0
 10
75739440.004
 20
23405604.0039982
 10
75739026.844
 20
23405328.5559981
 10
75739025.9920001
 20
23405328.0039981
 10
75738432.0040001
 20
23404932.0039982
 10
75738400.7200002
 20
23404989.1239982
 10
75738369.0280001
 20
23405040.0759981
 10
75738337.3120001
 20
23405091.0039981
 10
75738305.5720001
 20
23405141.9079981
 10
75738273.7960001
 20
23405192.7999981
 10
75738241.9720001
 20
23405243.6799982
 10
75738210.1360001
 20
23405294.535998
 10
75738189.148
 20
23405328.0039981
 10
75738188.8480002
 20
23405328.4719982
 10
75738178.2520001
 20
23405345.3679981
 10
75738146.356
 20
23405396.1759981
 10
75738114.412
 20
23405446.9719982
 10
75738082.4440002
 20
23405497.7439981
 10
75738050.4520001
 20
23405548.5039982
 10
75738037.5280002
 20
23405568.9759982
 10
75739056.004
 20
23406216.0039982
 10
75739440.004
 20
23405604.0039982
  0
LWPOLYLINE
  5
2001E
  8
0
100
AcDbEntity
100
AcDbPolyline
 70
0
 90
19
 62
7
370
0
 10
75739464.0040001
 20
23399688.0039982
 10
75739500.004
 20
23399616.0039981
 10
75738418.7680001
 20
23399015.3439981
 10
75738405.868
 20
23399039.6559981
 10
75738377.392
 20
23399092.4799981
 10
75738348.592
 20
23399145.0999982
 10
75738319.42
 20
23399197.5279981
 10
75738289.912
 20
23399249.7759982
 10
75738260.0680001
 20
23399301.8199982
 10
75738229.8760001
 20
23399353.6719982
 10
75738199.3360001
 20
23399405.3199982
 10
75738168.4600001
 20
23399456.7639982
 10
75738137.2480001
 20
23399508.0159981
 10
75738105.688
 20
23399559.0519981
 10
75738073.828
 20
23399609.8719982
 10
75738041.608
 20
23399660.4879982
 10
75738012.004
 20
23399712.0039981
 10
75739007.992
 20
23400372.0039982
 10
75739464.0040001
 20
23399688.0039982
  0
LWPOLYLINE
  5
2001F
  8
0
100
AcDbEntity
100
AcDbPolyline
 70
0
 90
16
 62
7
370
0
 10
75739284.004
 20
23402280.0039981
 10
75739524.0040001
 20
23401908.0039981
 10
75739555.1560001
 20
23401856.7279982
 10
75739586.368
 20
23401805.4759982
 10
75739608.004
 20
23401776.0039982
 10
75738561.5320001
 20
23401078.4559982
 10
75738060.0040001
 20
23401872.0039981
 10
75738864.0040001
 20
23402376.0039981
 10
75738918.244
 20
23402401.4319983
 10
75738976.3480001
 20
23402416.0599982
 10
75739036.156
 20
23402419.3599982
 10
75739095.508
 20
23402411.1999981
 10
75739152.2200001
 20
23402391.8799982
 10
75739204.204
 20
23402362.1079981
 10
75739249.5760001
 20
23402322.9879981
 10
75739284.004
 20
23402280.0039981
  0
LWPOLYLINE
  5
20020
  8
0
100
AcDbEntity
100
AcDbPolyline
 70
0
 90
19
 62
7
370
0
 10
75739346.7640002
 20
23390181.5079982
 10
75739284.0040001
 20
23390112.0039983
 10
75738757.4800001
 20
23389486.755998
 10
75738000.0040001
 20
23390400.0159982
 10
75738014.1520002
 20
23390409.0639981
 10
75738059.0320001
 20
23390448.8919982
 10
75738103.576
 20
23390489.0919981
 10
75738147.7840001
 20
23390529.6639982
 10
75738191.656
 20
23390570.5839982
 10
75738235.1800002
 20
23390611.8759982
 10
75738278.3680001
 20
23390653.5279983
 10
75738321.1960001
 20
23390695.5519981
 10
75738363.676
 20
23390737.9239981
 10
75738405.8080001
 20
23390780.6439981
 10
75738447.58
 20
23390823.7119982
 10
75738489.0040001
 20
23390867.1279982
 10
75738530.0560001
 20
23390910.8799982
 10
75738570.7360002
 20
23390954.9799981
 10
75739346.7640002
 20
23390181.5079982
  0
LWPOLYLINE
  5
20021
  8
0
100
AcDbEntity
100
AcDbPolyline
 70
0
 90
18
 62
7
370
0
 10
75739848.604
 20
23407666.7679982
 10
75738645.9040001
 20
23406886.7199983
 10
75738190.7080002
 20
23407631.2119982
 10
75739428.0040001
 20
23408340.0039981
 10
75739430.6680001
 20
23408325.0039981
 10
75739460.5720001
 20
23408272.9839982
 10
75739490.8480001
 20
23408221.1799982
 10
75739521.508
 20
23408169.6039981
 10
75739552.5400001
 20
23408118.2559981
 10
75739583.9560001
 20
23408067.1359983
 10
75739615.7440001
 20
23408016.2439981
 10
75739647.9040001
 20
23407965.5919981
 10
75739680.436
 20
23407915.1799983
 10
75739713.328
 20
23407865.0079981
 10
75739746.6040001
 20
23407815.0759981
 10
75739780.2400001
 20
23407765.395998
 10
75739814.2480001
 20
23407715.9559983
 10
75739848.604
 20
23407666.7679982
  0
LWPOLYLINE
  5
20022
  8
0
100
AcDbEntity
100
AcDbPolyline
 70
0
 90
14
 62
7
370
0
 10
75739655.1760001
 20
23393304.7239982
 10
75739584.0040001
 20
23393220.0039982
 10
75739104.0040001
 20
23392656.0039982
 10
75739068.58
 20
23392619.0679982
 10
75739019.6680001
 20
23392584.4959981
 10
75738964.7200001
 20
23392560.6519982
 10
75738906.064
 20
23392548.5559983
 10
75738846.1720001
 20
23392548.6999982
 10
75738787.5760001
 20
23392561.0839982
 10
75738732.7480002
 20
23392585.1919982
 10
75738684.004
 20
23392620.0039982
 10
75738204.0040001
 20
23393004.0159983
 10
75739007.884
 20
23393868.7839981
 10
75739655.1760001
 20
23393304.7239982
  0
LWPOLYLINE
  5
20023
  8
0
100
AcDbEntity
100
AcDbPolyline
 70
0
 90
22
 62
7
370
0
 10
75739468.8400001
 20
23405547.0519981
 10
75739603.648
 20
23405328.6279981
 10
75739604.032
 20
23405328.0039982
 10
75739862.296
 20
23404909.5039982
 10
75738840.0040001
 20
23404284.0039982
 10
75738809.7640001
 20
23404324.9839981
 10
75738778.48
 20
23404376.1879981
 10
75738747.1840001
 20
23404427.3679981
 10
75738715.8400001
 20
23404478.5359981
 10
75738684.4720001
 20
23404529.6799983
 10
75738653.0680002
 20
23404580.8119982
 10
75738621.6400001
 20
23404631.9199981
 10
75738590.176
 20
23404683.0039981
 10
75738558.676
 20
23404734.0759982
 10
75738527.1400001
 20
23404785.1239983
 10
75738495.58
 20
23404836.1479981
 10
75738463.996
 20
23404887.1599981
 10
75738432.0040001
 20
23404932.0039982
 10
75739025.9920001
 20
23405328.0039981
 10
75739026.844
 20
23405328.5559981
 10
75739440.004
 20
23405604.0039982
 10
75739468.8400001
 20
23405547.0519981
  0
LWPOLYLINE
  5
20024
  8
0
100
AcDbEntity
100
AcDbPolyline
 70
0
 90
20
 62
7
370
0
 10
75739821.052
 20
23398942.5879981
 10
75739900.4560002
 20
23398776.8199982
 10
75738774.3640001
 20
23398269.5199982
 10
75738762.8320001
 20
23398295.7279981
 10
75738738.508
 20
23398350.579998
 10
75738720.0040001
 20
23398392.0039982
 10
75738695.788
 20
23398446.9039982
 10
75738671.2120001
 20
23398501.6359983
 10
75738646.288
 20
23398556.2119982
 10
75738620.9920001
 20
23398610.6199981
 10
75738595.3480001
 20
23398664.8599982
 10
75738569.3320002
 20
23398718.9319982
 10
75738542.968
 20
23398772.8359982
 10
75738516.2560001
 20
23398826.5599981
 10
75738489.1840001
 20
23398880.1039981
 10
75738461.7640002
 20
23398933.4559982
 10
75738433.996
 20
23398986.6519982
 10
75738418.7680001
 20
23399015.3439981
 10
75739500.004
 20
23399616.0039981
 10
75739821.052
 20
23398942.5879981
  0
LWPOLYLINE
  5
20025
  8
0
100
AcDbEntity
100
AcDbPolyline
 70
0
 90
19
 62
7
370
0
 10
75740040.0040001
 20
23401080.0039981
 10
75739007.992
 20
23400372.0039982
 10
75738561.5320001
 20
23401078.4559982
 10
75739608.004
 20
23401776.0039982
 10
75739617.6520002
 20
23401754.2839983
 10
75739648.996
 20
23401703.1159981
 10
75739680.412
 20
23401651.9959981
 10
75739711.8880001
 20
23401600.9239981
 10
75739743.4480001
 20
23401549.8879982
 10
75739775.0440001
 20
23401498.8879982
 10
75739806.7240001
 20
23401447.9239982
 10
75739838.464
 20
23401397.0079981
 10
75739870.2640001
 20
23401346.1279981
 10
75739902.148
 20
23401295.3079981
 10
75739934.08
 20
23401244.5119983
 10
75739966.0840001
 20
23401193.7639983
 10
75739998.1600001
 20
23401143.0519981
 10
75740030.2960001
 20
23401092.3879983
 10
75740040.0040001
 20
23401080.0039981
  0
LWPOLYLINE
  5
20026
  8
0
100
AcDbEntity
100
AcDbPolyline
 70
0
 90
12
 62
7
370
0
 10
75740292.5200001
 20
23407020.3279982
 10
75739056.004
 20
23406216.0039982
 10
75738645.9040001
 20
23406886.7199983
 10
75739848.604
 20
23407666.7679982
 10
75739883.3320002
 20
23407617.8439981
 10
75739918.42
 20
23407569.1719982
 10
75739953.856
 20
23407520.7519982
 10
75739989.6520002
 20
23407472.607998
 10
75740025.7960001
 20
23407424.715998
 10
75740062.312
 20
23407377.0999982
 10
75740088.0160001
 20
23407344.0039982
 10
75740292.5200001
 20
23407020.3279982
  0
LWPOLYLINE
  5
20027
  8
0
100
AcDbEntity
100
AcDbPolyline
 70
0
 90
13
 62
7
370
0
 10
75738570.7360002
 20
23390954.9799981
 10
75738611.0560002
 20
23390999.4159982
 10
75738651.0040001
 20
23391044.187998
 10
75738690.58
 20
23391089.2839982
 10
75738729.772
 20
23391134.7039981
 10
75738768.592
 20
23391180.4599983
 10
75738807.0280001
 20
23391226.5279983
 10
75738828.0040001
 20
23391252.0039982
 10
75739111.576
 20
23391567.9759981
 10
75739921.8040001
 20
23390818.3839981
 10
75739836.004
 20
23390724.0039982
 10
75739346.7640002
 20
23390181.5079982
 10
75738570.7360002
 20
23390954.9799981
  0
LWPOLYLINE
  5
20028
  8
0
100
AcDbEntity
100
AcDbPolyline
 70
0
 90
19
 62
7
370
0
 10
75740148.0040001
 20
23398260.0039982
 10
75740268.0040001
 20
23398008.0039982
 10
75739077.412
 20
23397538.9839983
 10
75739063.0000002
 20
23397575.8479981
 10
75739040.968
 20
23397631.6599981
 10
75739018.7680001
 20
23397687.3999982
 10
75738996.3760002
 20
23397743.0679982
 10
75738973.828
 20
23397798.6759981
 10
75738951.0880001
 20
23397854.1999981
 10
75738928.1680001
 20
23397909.6519982
 10
75738905.08
 20
23397965.0319982
 10
75738881.8120001
 20
23398020.3159981
 10
75738858.3640001
 20
23398075.5639982
 10
75738834.7480001
 20
23398130.7159981
 10
75738810.9520001
 20
23398185.7839981
 10
75738786.9880001
 20
23398240.8039982
 10
75738774.3640001
 20
23398269.5199982
 10
75739900.4560002
 20
23398776.8199982
 10
75740148.0040001
 20
23398260.0039982
  0
LWPOLYLINE
  5
20029
  8
0
100
AcDbEntity
100
AcDbPolyline
 70
0
 90
6
 62
7
370
0
 10
75739284.0040001
 20
23390112.0039983
 10
75740112.004
 20
23389392.0039982
 10
75739558.0360001
 20
23388745.7079982
 10
75738732.0040001
 20
23389464.0039982
 10
75738757.4800001
 20
23389486.755998
 10
75739284.0040001
 20
23390112.0039983
  0
LWPOLYLINE
  5
2002A
  8
0
100
AcDbEntity
100
AcDbPolyline
 70
0
 90
23
 62
7
370
0
 10
75740353.7200001
 20
23404113.231998
 10
75739584.0040001
 20
23403636.0039982
 10
75739541.44
 20
23403610.0239981
 10
75739485.2080002
 20
23403589.4199982
 10
75739425.8800001
 20
23403581.2479982
 10
75739366.1800002
 20
23403585.9039983
 10
75739308.8320001
 20
23403603.1599982
 10
75739256.4760001
 20
23403632.2359982
 10
75739211.5120002
 20
23403671.7999982
 10
75739176.0040001
 20
23403720.0039982
 10
75739151.6920002
 20
23403760.467998
 10
75739120.7680001
 20
23403811.8759982
 10
75739089.8080001
 20
23403863.2719981
 10
75739058.8240001
 20
23403914.6559982
 10
75739027.8040002
 20
23403966.0159982
 10
75738996.7480002
 20
23404017.3519981
 10
75738965.6680001
 20
23404068.6759981
 10
75738934.5400001
 20
23404119.9639981
 10
75738903.4000001
 20
23404171.2519982
 10
75738872.2120001
 20
23404222.5159982
 10
75738840.0040001
 20
23404284.0039982
 10
75739862.296
 20
23404909.5039982
 10
75740353.7200001
 20
23404113.231998
  0
LWPOLYLINE
  5
2002B
  8
0
100
AcDbEntity
100
AcDbPolyline
 70
0
 90
13
 62
7
370
0
 10
75740291.008
 20
23394060.9399981
 10
75740280.9880001
 20
23394049.659998
 10
75740241.5560001
 20
23394004.4319982
 10
75740202.5440001
 20
23393958.8559982
 10
75740163.94
 20
23393912.9199982
 10
75740125.744
 20
23393866.6359983
 10
75740088.0160001
 20
23393820.0039982
 10
75739655.1760001
 20
23393304.7239982
 10
75739007.884
 20
23393868.7839981
 10
75738816.0040001
 20
23394036.0039982
 10
75739189.1560001
 20
23394454.9839983
 10
75739500.0040001
 20
23394804.0039982
 10
75740291.008
 20
23394060.9399981
  0
LWPOLYLINE
  5
2002C
  8
0
100
AcDbEntity
100
AcDbPolyline
 70
0
 90
19
 62
7
370
0
 10
75740496.856
 20
23400372.5679982
 10
75739464.0040001
 20
23399688.0039982
 10
75739007.992
 20
23400372.0039982
 10
75740040.0040001
 20
23401080.0039981
 10
75740062.4920001
 20
23401041.7479982
 10
75740094.76
 20
23400991.1679982
 10
75740127.088
 20
23400940.6239982
 10
75740159.4880001
 20
23400890.1279982
 10
75740191.9480001
 20
23400839.6679982
 10
75740224.48
 20
23400789.2439982
 10
75740257.0720001
 20
23400738.8679981
 10
75740289.7240001
 20
23400688.5399982
 10
75740322.4480001
 20
23400638.2479982
 10
75740355.2320001
 20
23400587.9919982
 10
75740388.0880001
 20
23400537.7839982
 10
75740421.0040001
 20
23400487.6239981
 10
75740453.9920001
 20
23400437.4999982
 10
75740487.0280002
 20
23400387.4239981
 10
75740496.856
 20
23400372.5679982
  0
LWPOLYLINE
  5
2002D
  8
0
100
AcDbEntity
100
AcDbPolyline
 70
0
 90
6
 62
7
370
0
 10
75740724.6640001
 20
23406336.411998
 10
75739468.8400001
 20
23405547.0519981
 10
75739440.004
 20
23405604.0039982
 10
75739056.004
 20
23406216.0039982
 10
75740292.5200001
 20
23407020.3279982
 10
75740724.6640001
 20
23406336.411998
  0
LWPOLYLINE
  5
2002E
  8
0
100
AcDbEntity
100
AcDbPolyline
 70
0
 90
190
 62
7
370
0
 10
75741124.1920002
 20
23415044.343998
 10
75743707.048
 20
23413431.0999982
 10
75743705.6680001
 20
23413400.6439981
 10
75743703.604
 20
23413340.6799982
 10
75743702.2
 20
23413280.6919983
 10
75743701.4440001
 20
23413220.7039981
 10
75743701.3600001
 20
23413160.7039981
 10
75743701.9240001
 20
23413100.703998
 10
75743703.148
 20
23413040.7159982
 10
75743705.0320001
 20
23412980.7519982
 10
75743707.5760001
 20
23412920.7999981
 10
75743710.7800001
 20
23412860.8839981
 10
75743714.632
 20
23412801.0159982
 10
75743719.1440001
 20
23412741.1839981
 10
75743724.3040001
 20
23412681.3999983
 10
75743730.148
 20
23412621.6879982
 10
75743736.6280001
 20
23412562.035998
 10
75743743.756
 20
23412502.4559982
 10
75743746.7200002
 20
23412479.8359981
 10
75743751.5440001
 20
23412442.9719982
 10
75743759.98
 20
23412383.5719982
 10
75743769.076
 20
23412324.2679981
 10
75743778.8200001
 20
23412265.0599981
 10
75743789.2120001
 20
23412205.9719982
 10
75743800.2520001
 20
23412146.9919981
 10
75743811.9280002
 20
23412088.1439982
 10
75743824.2520001
 20
23412029.4159983
 10
75743837.2360001
 20
23411970.8439981
 10
75743850.856
 20
23411912.3919982
 10
75743865.1120001
 20
23411854.1199981
 10
75743880.0040001
 20
23411796.0039982
 10
75744393.3400001
 20
23409779.3199982
 10
75744552.0160001
 20
23409156.0039982
 10
75744264.0040001
 20
23408976.0039982
 10
75741367.1920001
 20
23407089.0399983
 10
75741239.9920001
 20
23407296.0039983
 10
75741226.7680001
 20
23407313.7399981
 10
75741191.0440001
 20
23407361.9439983
 10
75741155.5720001
 20
23407410.339998
 10
75741120.3520001
 20
23407458.9159982
 10
75741085.384
 20
23407507.6719981
 10
75741050.6800001
 20
23407556.6199982
 10
75741016.2280001
 20
23407605.7359983
 10
75740982.0280001
 20
23407655.0439983
 10
75740948.092
 20
23407704.5199982
 10
75740914.4200001
 20
23407754.1879981
 10
75740881.0000001
 20
23407804.0119982
 10
75740847.844
 20
23407854.0159982
 10
75740814.9520001
 20
23407904.1999982
 10
75740782.3240001
 20
23407954.5519981
 10
75740749.9600001
 20
23408005.0719982
 10
75740717.8600002
 20
23408055.7719981
 10
75740686.0120001
 20
23408106.6039981
 10
75740654.4520001
 20
23408157.6399982
 10
75740623.144
 20
23408208.8199982
 10
75740592.1120001
 20
23408260.1799982
 10
75740561.344
 20
23408311.6839982
 10
75740530.84
 20
23408363.3559981
 10
75740500.6240001
 20
23408415.1719982
 10
75740470.6600001
 20
23408467.1799982
 10
75740440.9840001
 20
23408519.3319982
 10
75740411.5720001
 20
23408571.6159981
 10
75740382.4360001
 20
23408624.0679983
 10
75740353.576
 20
23408676.6759981
 10
75740324.9920001
 20
23408729.4279982
 10
75740296.6840001
 20
23408782.3239981
 10
75740268.6520001
 20
23408835.3759983
 10
75740240.9080001
 20
23408888.5719982
 10
75740213.4160001
 20
23408941.9119981
 10
75740186.2240001
 20
23408995.3839981
 10
75740159.3080001
 20
23409049.0119982
 10
75740132.6680001
 20
23409102.7719981
 10
75740106.316
 20
23409156.6759981
 10
75740080.2400001
 20
23409210.7359982
 10
75740054.452
 20
23409264.9039981
 10
75740028.94
 20
23409319.203998
 10
75740003.728
 20
23409373.6479981
 10
75739978.7920001
 20
23409428.2119981
 10
75739954.1320001
 20
23409482.9199982
 10
75739929.7720001
 20
23409537.7479982
 10
75739905.7000001
 20
23409592.7079983
 10
75739881.9040001
 20
23409647.7879981
 10
75739858.4200001
 20
23409702.9879981
 10
75739835.1880001
 20
23409758.3199982
 10
75739812.2680001
 20
23409813.771998
 10
75739789.6360001
 20
23409869.3319983
 10
75739767.2920001
 20
23409925.0359981
 10
75739745.2480001
 20
23409980.8239982
 10
75739723.48
 20
23410036.7439981
 10
75739702.024
 20
23410092.7719981
 10
75739680.844
 20
23410148.9079981
 10
75739659.964
 20
23410205.1639983
 10
75739639.384
 20
23410261.5159982
 10
75739619.092
 20
23410317.9999981
 10
75739599.1000001
 20
23410374.5559982
 10
75739579.4080001
 20
23410431.231998
 10
75739560.0040001
 20
23410488.0159982
 10
75739540.048
 20
23410544.5959982
 10
75739520.62
 20
23410601.355998
 10
75739501.684
 20
23410658.283998
 10
75739483.2520001
 20
23410715.3919981
 10
75739465.3240001
 20
23410772.6319982
 10
75739447.912
 20
23410830.063998
 10
75739430.9920001
 20
23410887.6279982
 10
75739414.5880001
 20
23410945.3479983
 10
75739398.688
 20
23411003.1999981
 10
75739383.316
 20
23411061.1959983
 10
75739368.4600001
 20
23411119.3239981
 10
75739354.108
 20
23411177.5839981
 10
75739340.2720001
 20
23411235.9639982
 10
75739326.9520001
 20
23411294.4639981
 10
75739314.148
 20
23411353.0839982
 10
75739301.872
 20
23411411.8119981
 10
75739290.1000001
 20
23411470.6479981
 10
75739278.856
 20
23411529.5919981
 10
75739268.1400001
 20
23411588.6199981
 10
75739257.94
 20
23411647.7439981
 10
75739248.268
 20
23411706.9639981
 10
75739239.1120002
 20
23411766.2559982
 10
75739230.4840002
 20
23411825.6439982
 10
75739222.3840001
 20
23411885.0919981
 10
75739214.812
 20
23411944.6119981
 10
75739207.756
 20
23412004.1919982
 10
75739201.24
 20
23412063.8319983
 10
75739195.24
 20
23412123.5319983
 10
75739189.7800001
 20
23412183.2919982
 10
75739184.8360001
 20
23412243.0879982
 10
75739180.4320001
 20
23412302.9319983
 10
75739176.5440001
 20
23412362.7999981
 10
75739173.1960001
 20
23412422.7039981
 10
75739170.3760001
 20
23412482.6319981
 10
75739168.0840002
 20
23412542.5959981
 10
75739166.3200001
 20
23412602.5599982
 10
75739165.0960001
 20
23412662.5479981
 10
75739164.3760001
 20
23412722.5479981
 10
75739164.2200001
 20
23412782.547998
 10
75739164.58
 20
23412842.5479981
 10
75739165.468
 20
23412902.5359982
 10
75739166.896
 20
23412962.5359981
 10
75739168.8400001
 20
23413022.4879982
 10
75739171.324
 20
23413082.4399981
 10
75739174.3360001
 20
23413142.3679981
 10
75739177.8760001
 20
23413202.2479983
 10
75739181.9560001
 20
23413262.1159982
 10
75739186.552
 20
23413321.9599982
 10
75739191.676
 20
23413381.7199982
 10
75739197.34
 20
23413441.4559982
 10
75739203.532
 20
23413501.1319981
 10
75739210.2280001
 20
23413560.7599981
 10
75739217.464
 20
23413620.3159982
 10
75739225.2400001
 20
23413679.8119982
 10
75739233.52
 20
23413739.2359982
 10
75739242.34
 20
23413798.5879982
 10
75739251.676
 20
23413857.8559981
 10
75739260.0040001
 20
23413908.0039981
 10
75739269.676
 20
23413967.2359982
 10
75739279.744
 20
23414026.3719981
 10
75739290.1840001
 20
23414085.4479982
 10
75739301.0320001
 20
23414144.4639981
 10
75739312.2280001
 20
23414203.4079981
 10
75739323.8200001
 20
23414262.2799983
 10
75739335.8080001
 20
23414321.0679983
 10
75739348.1560001
 20
23414379.7839981
 10
75739360.9000002
 20
23414438.4159983
 10
75739374.0160001
 20
23414496.9639982
 10
75739387.5280001
 20
23414555.4279983
 10
75739401.4000002
 20
23414613.7959981
 10
75739415.6560001
 20
23414672.079998
 10
75739430.2960001
 20
23414730.2799983
 10
75739445.3080001
 20
23414788.3599982
 10
75739460.704
 20
23414846.3439981
 10
75739476.4720002
 20
23414904.2439981
 10
75739492.6120001
 20
23414962.023998
 10
75739509.1360002
 20
23415019.7079981
 10
75739526.0320001
 20
23415077.2959982
 10
75739543.3
 20
23415134.7399981
 10
75739560.94
 20
23415192.0759982
 10
75739578.952
 20
23415249.3279981
 10
75739597.3360001
 20
23415306.4359982
 10
75739616.08
 20
23415363.4359982
 10
75739635.2080001
 20
23415420.3039983
 10
75739654.6960001
 20
23415477.0399983
 10
75739674.5680002
 20
23415533.6679981
 10
75739694.788
 20
23415590.1519982
 10
75739715.3920001
 20
23415646.5039981
 10
75739736.344
 20
23415702.7239983
 10
75739757.6680001
 20
23415758.8119981
 10
75739779.3640001
 20
23415814.7439982
 10
75739801.4200001
 20
23415870.5439982
 10
75741124.1920002
 20
23415044.343998
  0
LWPOLYLINE
  5
2002F
  8
0
100
AcDbEntity
100
AcDbPolyline
 70
0
 90
21
 62
7
370
0
 10
75740268.0040001
 20
23398008.0039982
 10
75740467.2520001
 20
23397578.0559983
 10
75740724.0040001
 20
23397024.0039982
 10
75739632.0040001
 20
23396844.0039981
 10
75739611.0400002
 20
23396913.5559982
 10
75739591.6360002
 20
23396970.2919982
 10
75739566.1120001
 20
23397024.5559982
 10
75739534.7920001
 20
23397075.6999982
 10
75739498.0480001
 20
23397123.0999982
 10
75739456.3360001
 20
23397166.1799982
 10
75739410.1360002
 20
23397204.4239982
 10
75739360.036
 20
23397237.3759983
 10
75739308.0040001
 20
23397264.0039981
 10
75739256.7280001
 20
23397295.1199981
 10
75739208.464
 20
23397330.7239982
 10
75739163.62
 20
23397370.5639981
 10
75739128.0040001
 20
23397408.0039982
 10
75739106.5120002
 20
23397464.0199981
 10
75739084.84
 20
23397519.9759983
 10
75739077.412
 20
23397538.9839983
 10
75740268.0040001
 20
23398008.0039982
  0
LWPOLYLINE
  5
20030
  8
0
100
AcDbEntity
100
AcDbPolyline
 70
0
 90
7
 62
7
370
0
 10
75739248.0040001
 20
23391720.0039982
 10
75739666.8040001
 20
23392201.0479982
 10
75740496.844
 20
23391455.2479982
 10
75740400.0040001
 20
23391348.0039982
 10
75739921.8040001
 20
23390818.3839981
 10
75739111.576
 20
23391567.9759981
 10
75739248.0040001
 20
23391720.0039982
  0
LWPOLYLINE
  5
20031
  8
0
100
AcDbEntity
100
AcDbPolyline
 70
0
 90
14
 62
7
370
0
 10
75740365.936
 20
23395654.0359981
 10
75740147.9320001
 20
23395440.0639981
 10
75739500.0040001
 20
23394804.0039982
 10
75739189.1560001
 20
23394454.9839983
 10
75739132.9000002
 20
23396221.7439981
 10
75739192.2760001
 20
23396230.2039981
 10
75739250.344
 20
23396245.1319981
 10
75739306.4560002
 20
23396266.3359981
 10
75739359.88
 20
23396293.5759981
 10
75739410.0040001
 20
23396326.5039981
 10
75739456.2040001
 20
23396364.7359981
 10
75739497.952
 20
23396407.8039981
 10
75739512.0040001
 20
23396436.0039981
 10
75740365.936
 20
23395654.0359981
  0
LWPOLYLINE
  5
20032
  8
0
100
AcDbEntity
100
AcDbPolyline
 70
0
 90
6
 62
7
370
0
 10
75739836.004
 20
23390724.0039982
 10
75740671.5280001
 20
23389983.9639982
 10
75740112.004
 20
23389392.0039982
 10
75739284.0040001
 20
23390112.0039983
 10
75739346.7640002
 20
23390181.5079982
 10
75739836.004
 20
23390724.0039982
  0
LWPOLYLINE
  5
20033
  8
0
100
AcDbEntity
100
AcDbPolyline
 70
0
 90
9
 62
7
370
0
 10
75741110.5960001
 20
23405725.6359983
 10
75740503.4920001
 20
23405328.7239982
 10
75740502.4000002
 20
23405328.0159982
 10
75739862.296
 20
23404909.5039982
 10
75739604.032
 20
23405328.0039982
 10
75739603.648
 20
23405328.6279981
 10
75739468.8400001
 20
23405547.0519981
 10
75740724.6640001
 20
23406336.411998
 10
75741110.5960001
 20
23405725.6359983
  0
LWPOLYLINE
  5
20034
  8
0
100
AcDbEntity
100
AcDbPolyline
 70
0
 90
20
 62
7
370
0
 10
75740968.156
 20
23399670.4479981
 10
75739821.052
 20
23398942.5879981
 10
75739500.004
 20
23399616.0039981
 10
75739464.0040001
 20
23399688.0039982
 10
75740496.856
 20
23400372.5679982
 10
75740520.148
 20
23400337.383998
 10
75740553.3040001
 20
23400287.3919982
 10
75740586.5560001
 20
23400237.4359983
 10
75740619.868
 20
23400187.5279982
 10
75740653.228
 20
23400137.6679981
 10
75740686.66
 20
23400087.8439981
 10
75740720.1640001
 20
23400038.0679982
 10
75740753.7400001
 20
23399988.3279981
 10
75740787.3520001
 20
23399938.6359982
 10
75740821.036
 20
23399888.9919982
 10
75740854.7920002
 20
23399839.3839981
 10
75740867.992
 20
23399820.0039981
 10
75740901.8920001
 20
23399770.4919982
 10
75740935.2640001
 20
23399720.6319981
 10
75740968.156
 20
23399670.4479981
  0
LWPOLYLINE
  5
20035
  8
0
100
AcDbEntity
100
AcDbPolyline
 70
0
 90
18
 62
7
370
0
 10
75740867.9920001
 20
23394636.0039982
 10
75740829.7480001
 20
23394603.3399982
 10
75740785.2400001
 20
23394563.0919981
 10
75740741.104
 20
23394522.4479982
 10
75740697.34
 20
23394481.3959982
 10
75740653.9480001
 20
23394439.9599982
 10
75740610.952
 20
23394398.1159981
 10
75740568.328
 20
23394355.8999983
 10
75740526.088
 20
23394313.2759982
 10
75740484.244
 20
23394270.2799982
 10
75740442.7960001
 20
23394226.8999982
 10
75740401.744
 20
23394183.1359982
 10
75740361.088
 20
23394139.0119983
 10
75740320.8400001
 20
23394094.5159982
 10
75740291.008
 20
23394060.9399981
 10
75739500.0040001
 20
23394804.0039982
 10
75740147.9320001
 20
23395440.0639981
 10
75740867.9920001
 20
23394636.0039982
  0
LWPOLYLINE
  5
20036
  8
0
100
AcDbEntity
100
AcDbPolyline
 70
0
 90
14
 62
7
370
0
 10
75740734.7800001
 20
23396903.8959982
 10
75740808.0040001
 20
23396088.0039982
 10
75740365.936
 20
23395654.0359981
 10
75739512.0040001
 20
23396436.0039981
 10
75739534.6960001
 20
23396455.1799983
 10
75739566.0280001
 20
23396506.3119981
 10
75739591.5640001
 20
23396560.575998
 10
75739611.0040001
 20
23396617.3119981
 10
75739624.0840001
 20
23396675.8359981
 10
75739630.6720001
 20
23396735.4399982
 10
75739630.6840001
 20
23396795.4159982
 10
75739632.0040001
 20
23396844.0039981
 10
75740724.0040001
 20
23397024.0039982
 10
75740734.7800001
 20
23396903.8959982
  0
LWPOLYLINE
  5
20037
  8
0
100
AcDbEntity
100
AcDbPolyline
 70
0
 90
7
 62
7
370
0
 10
75739666.8040001
 20
23392201.0479982
 10
75740136.004
 20
23392740.0039981
 10
75740220.0040001
 20
23392848.0039982
 10
75741060.52
 20
23392079.535998
 10
75740952.004
 20
23391960.0039981
 10
75740496.844
 20
23391455.2479982
 10
75739666.8040001
 20
23392201.0479982
  0
LWPOLYLINE
  5
20038
  8
0
100
AcDbEntity
100
AcDbPolyline
 70
0
 90
14
 62
7
370
0
 10
75741106.4440001
 20
23402306.4159982
 10
75740355.2920001
 20
23401838.0559982
 10
75740088.0160001
 20
23402256.0039981
 10
75739848.0040001
 20
23402652.0039982
 10
75739831.6360002
 20
23402681.9559983
 10
75739811.968
 20
23402738.523998
 10
75739804.5760001
 20
23402797.9479982
 10
75739809.772
 20
23402857.6119983
 10
75739827.352
 20
23402914.8519982
 10
75739856.5120002
 20
23402967.1719981
 10
75739895.992
 20
23403012.2199981
 10
75739944.004
 20
23403048.0159982
 10
75740424.0040001
 20
23403360.0039982
 10
75741106.4440001
 20
23402306.4159982
  0
LWPOLYLINE
  5
20039
  8
0
100
AcDbEntity
100
AcDbPolyline
 70
0
 90
22
 62
7
370
0
 10
75741432.004
 20
23398812.0039981
 10
75740148.0040001
 20
23398260.0039982
 10
75739900.4560002
 20
23398776.8199982
 10
75739821.052
 20
23398942.5879981
 10
75740968.156
 20
23399670.4479981
 10
75741000.5200001
 20
23399619.9279983
 10
75741032.368
 20
23399569.0719982
 10
75741063.6880001
 20
23399517.9039982
 10
75741094.4920001
 20
23399466.4119982
 10
75741124.7680001
 20
23399414.6079981
 10
75741154.5280001
 20
23399362.5039982
 10
75741183.7480001
 20
23399310.0999981
 10
75741212.4280002
 20
23399257.4079981
 10
75741240.5680001
 20
23399204.4159982
 10
75741268.1680001
 20
23399151.1359982
 10
75741295.228
 20
23399097.591998
 10
75741321.7480002
 20
23399043.7599981
 10
75741347.704
 20
23398989.6759981
 10
75741373.12
 20
23398935.3279982
 10
75741397.9840001
 20
23398880.7159981
 10
75741422.2840001
 20
23398825.8519982
 10
75741432.004
 20
23398812.0039981
  0
LWPOLYLINE
  5
2003A
  8
0
100
AcDbEntity
100
AcDbPolyline
 70
0
 90
17
 62
7
370
0
 10
75741468.0040001
 20
23405160.0039981
 10
75741483.8080001
 20
23405128.4799981
 10
75741502.2640001
 20
23405071.4919982
 10
75741509.5720001
 20
23405012.0319981
 10
75741505.48
 20
23404952.259998
 10
75741490.1320001
 20
23404894.3479982
 10
75741464.08
 20
23404840.4079982
 10
75741428.2720001
 20
23404792.3719981
 10
75741384.0040001
 20
23404752.0039982
 10
75740353.7200001
 20
23404113.231998
 10
75739862.296
 20
23404909.5039982
 10
75740502.4000002
 20
23405328.0159982
 10
75740503.4920001
 20
23405328.7239982
 10
75741110.5960001
 20
23405725.6359983
 10
75741361.3360001
 20
23405328.8079981
 10
75741361.84
 20
23405328.0039982
 10
75741468.0040001
 20
23405160.0039981
  0
LWPOLYLINE
  5
2003B
  8
0
100
AcDbEntity
100
AcDbPolyline
 70
0
 90
14
 62
7
370
0
 10
75740400.0040001
 20
23391348.0039982
 10
75741241.0120001
 20
23390603.1039981
 10
75741220.7920001
 20
23390580.3399981
 10
75741180.8800001
 20
23390535.5439981
 10
75741140.896
 20
23390490.807998
 10
75741100.8520001
 20
23390446.1199981
 10
75741060.7360001
 20
23390401.5039981
 10
75741020.5600001
 20
23390356.9479982
 10
75740980.3120001
 20
23390312.4399981
 10
75740940.0040001
 20
23390268.0039982
 10
75740671.5280001
 20
23389983.9639982
 10
75739836.004
 20
23390724.0039982
 10
75739921.8040001
 20
23390818.3839981
 10
75740400.0040001
 20
23391348.0039982
  0
LWPOLYLINE
  5
2003C
  8
0
100
AcDbEntity
100
AcDbPolyline
 70
0
 90
16
 62
7
370
0
 10
75741732.004
 20
23397936.0039982
 10
75740467.2520001
 20
23397578.0559983
 10
75740268.0040001
 20
23398008.0039982
 10
75740148.0040001
 20
23398260.0039982
 10
75741432.004
 20
23398812.0039981
 10
75741446.02
 20
23398770.7479982
 10
75741469.204
 20
23398715.4159982
 10
75741491.812
 20
23398659.8439981
 10
75741513.856
 20
23398604.0319982
 10
75741535.3360001
 20
23398548.0039981
 10
75741556.24
 20
23398491.7719981
 10
75741576.58
 20
23398435.3239981
 10
75741596.3320001
 20
23398378.6599981
 10
75741615.508
 20
23398321.8159981
 10
75741624.004
 20
23398296.0039981
 10
75741732.004
 20
23397936.0039982
  0
LWPOLYLINE
  5
2003D
  8
0
100
AcDbEntity
100
AcDbPolyline
 70
0
 90
19
 62
7
370
0
 10
75741501.8320001
 20
23395131.0039981
 10
75741489.3760002
 20
23395122.4959982
 10
75741440.1040001
 20
23395088.2479982
 10
75741391.1560001
 20
23395053.5559982
 10
75741342.532
 20
23395018.4079981
 10
75741294.2200001
 20
23394982.8279982
 10
75741246.232
 20
23394946.8039983
 10
75741198.58
 20
23394910.3359982
 10
75741151.2640001
 20
23394873.4479983
 10
75741104.2960001
 20
23394836.1279982
 10
75741057.6520001
 20
23394798.3759982
 10
75741011.3680001
 20
23394760.2039981
 10
75740965.4200001
 20
23394721.6119982
 10
75740919.8320001
 20
23394682.5999982
 10
75740867.9920001
 20
23394636.0039982
 10
75740147.9320001
 20
23395440.0639981
 10
75740365.936
 20
23395654.0359981
 10
75740808.0040001
 20
23396088.0039982
 10
75741501.8320001
 20
23395131.0039981
  0
LWPOLYLINE
  5
2003E
  8
0
100
AcDbEntity
100
AcDbPolyline
 70
0
 90
10
 62
7
370
0
 10
75740220.0040001
 20
23392848.0039982
 10
75740640.0040001
 20
23393340.0039982
 10
75740678.608
 20
23393385.9399981
 10
75740717.5960001
 20
23393431.5399982
 10
75740756.98
 20
23393476.8039983
 10
75740784.0040001
 20
23393508.0039982
 10
75741650.1040001
 20
23392713.843998
 10
75741516.0040001
 20
23392584.0039983
 10
75741060.52
 20
23392079.535998
 10
75740220.0040001
 20
23392848.0039982
  0
LWPOLYLINE
  5
2003F
  8
0
100
AcDbEntity
100
AcDbPolyline
 70
0
 90
8
 62
7
370
0
 10
75741741.412
 20
23401894.3479982
 10
75741793.468
 20
23401812.939998
 10
75740786.4880001
 20
23401165.5999982
 10
75740748.004
 20
23401223.9919981
 10
75740355.2920001
 20
23401838.0559982
 10
75741106.4440001
 20
23402306.4159982
 10
75741372.0040001
 20
23402472.0039982
 10
75741741.412
 20
23401894.3479982
  0
LWPOLYLINE
  5
20040
  8
0
100
AcDbEntity
100
AcDbPolyline
 70
0
 90
6
 62
7
370
0
 10
75740424.0040001
 20
23403360.0039982
 10
75741084.0040001
 20
23403780.0039982
 10
75741726.88
 20
23402837.3199982
 10
75741372.0040001
 20
23402472.0039982
 10
75741106.4440001
 20
23402306.4159982
 10
75740424.0040001
 20
23403360.0039982
  0
LWPOLYLINE
  5
20041
  8
0
100
AcDbEntity
100
AcDbPolyline
 70
0
 90
20
 62
7
370
0
 10
75741787.8760001
 20
23391231.6039981
 10
75741772.6000001
 20
23391213.6639983
 10
75741733.6240002
 20
23391168.0399982
 10
75741694.576
 20
23391122.4879982
 10
75741655.4560002
 20
23391076.9839982
 10
75741616.2760001
 20
23391031.5399982
 10
75741577.0360001
 20
23390986.1559981
 10
75741537.7240002
 20
23390940.8319983
 10
75741498.34
 20
23390895.5679983
 10
75741458.8840001
 20
23390850.3639982
 10
75741419.368
 20
23390805.1959982
 10
75741379.7800001
 20
23390760.1359983
 10
75741340.144
 20
23390715.0879981
 10
75741300.424
 20
23390670.1119982
 10
75741260.6440001
 20
23390625.1959982
 10
75741241.0120001
 20
23390603.1039981
 10
75740400.0040001
 20
23391348.0039982
 10
75740496.844
 20
23391455.2479982
 10
75740952.004
 20
23391960.0039981
 10
75741787.8760001
 20
23391231.6039981
  0
LWPOLYLINE
  5
20042
  8
0
100
AcDbEntity
100
AcDbPolyline
 70
0
 90
18
 62
7
370
0
 10
75741925.108
 20
23397204.2799983
 10
75740734.7800001
 20
23396903.8959982
 10
75740724.0040001
 20
23397024.0039982
 10
75740467.2520001
 20
23397578.0559983
 10
75741732.004
 20
23397936.0039982
 10
75741748.108
 20
23397878.2119982
 10
75741764.092
 20
23397820.3719981
 10
75741779.9320001
 20
23397762.5079982
 10
75741795.6520001
 20
23397704.5959983
 10
75741811.204
 20
23397646.6479981
 10
75741826.6240001
 20
23397588.6639983
 10
75741841.912
 20
23397530.6439982
 10
75741857.0560001
 20
23397472.5879982
 10
75741872.0680001
 20
23397414.4959982
 10
75741886.936
 20
23397356.3679981
 10
75741901.66
 20
23397298.203998
 10
75741916.2520001
 20
23397240.0039982
 10
75741925.108
 20
23397204.2799983
  0
LWPOLYLINE
  5
20043
  8
0
100
AcDbEntity
100
AcDbPolyline
 70
0
 90
5
 62
7
370
0
 10
75741893.1280001
 20
23388751.4199981
 10
75741349.1560001
 20
23388142.9719982
 10
75740484.0040001
 20
23388912.0159981
 10
75741060.0040001
 20
23389536.0039981
 10
75741893.1280001
 20
23388751.4199981
  0
LWPOLYLINE
  5
20044
  8
0
100
AcDbEntity
100
AcDbPolyline
 70
0
 90
18
 62
7
370
0
 10
75742128.0040001
 20
23396424.0039981
 10
75740808.0040001
 20
23396088.0039982
 10
75740734.7800001
 20
23396903.8959982
 10
75741925.108
 20
23397204.2799983
 10
75741930.7
 20
23397181.7679981
 10
75741945.0280001
 20
23397123.5079981
 10
75741959.2000001
 20
23397065.1999982
 10
75741972.0040001
 20
23397012.0039982
 10
75741986.8600001
 20
23396953.8759981
 10
75742001.3080001
 20
23396895.6399982
 10
75742015.3360001
 20
23396837.2959982
 10
75742028.9560002
 20
23396778.8799982
 10
75742042.1560001
 20
23396720.343998
 10
75742058.908
 20
23396653.8879983
 10
75742074.328
 20
23396595.9039982
 10
75742090.2520001
 20
23396538.0519981
 10
75742106.704
 20
23396480.3559982
 10
75742128.0040001
 20
23396424.0039981
  0
LWPOLYLINE
  5
20045
  8
0
100
AcDbEntity
100
AcDbPolyline
 70
0
 90
6
 62
7
370
0
 10
75741793.468
 20
23401812.939998
 10
75742145.08
 20
23401263.0999982
 10
75742214.9320002
 20
23401153.8759983
 10
75741205.8040001
 20
23400529.1199981
 10
75740786.4880001
 20
23401165.5999982
 10
75741793.468
 20
23401812.939998
  0
LWPOLYLINE
  5
20046
  8
0
100
AcDbEntity
100
AcDbPolyline
 70
0
 90
22
 62
7
370
0
 10
75742272.0040001
 20
23393316.0039982
 10
75741650.1040001
 20
23392713.843998
 10
75740784.0040001
 20
23393508.0039982
 10
75740796.7480002
 20
23393521.7199983
 10
75740836.912
 20
23393566.311998
 10
75740877.4480001
 20
23393610.5439982
 10
75740918.3680001
 20
23393654.4159982
 10
75740959.6720001
 20
23393697.9399982
 10
75741001.3480001
 20
23393741.1159982
 10
75741043.384
 20
23393783.9199983
 10
75741085.7920002
 20
23393826.3639982
 10
75741128.5720001
 20
23393868.4359981
 10
75741171.7
 20
23393910.1479981
 10
75741215.2000001
 20
23393951.4759982
 10
75741259.0600001
 20
23393992.4319982
 10
75741303.244
 20
23394033.0039982
 10
75741347.788
 20
23394073.2039981
 10
75741392.6800002
 20
23394113.007998
 10
75741437.92
 20
23394152.4279983
 10
75741483.4840002
 20
23394191.4639983
 10
75741504.0040001
 20
23394216.0039982
 10
75742272.0040001
 20
23393316.0039982
  0
LWPOLYLINE
  5
20047
  8
0
100
AcDbEntity
100
AcDbPolyline
 70
0
 90
34
 62
7
370
0
 10
75742296.0040001
 20
23395920.0039981
 10
75742309.8040002
 20
23395892.1399982
 10
75742327.1800002
 20
23395834.8279981
 10
75742331.7640001
 20
23395775.1279982
 10
75742323.316
 20
23395715.8479982
 10
75742302.2560001
 20
23395659.7839982
 10
75742269.5680001
 20
23395609.6119983
 10
75742226.8120001
 20
23395567.6959982
 10
75742176.0040001
 20
23395536.0039982
 10
75742156.4920001
 20
23395525.7799983
 10
75742103.5120002
 20
23395497.5919981
 10
75742050.8200001
 20
23395468.9119981
 10
75741998.3800001
 20
23395439.7759982
 10
75741946.204
 20
23395410.1599981
 10
75741894.2920001
 20
23395380.0519981
 10
75741842.6680001
 20
23395349.4879982
 10
75741791.3200001
 20
23395318.4439982
 10
75741740.2480001
 20
23395286.9439982
 10
75741689.4880001
 20
23395254.9759982
 10
75741639.0040001
 20
23395222.5399982
 10
75741588.8200002
 20
23395189.6479981
 10
75741538.9480001
 20
23395156.2999982
 10
75741501.8320001
 20
23395131.0039981
 10
75740808.0040001
 20
23396088.0039982
 10
75742128.0040001
 20
23396424.0039981
 10
75742141.12
 20
23396365.3959982
 10
75742159.0960001
 20
23396308.1559982
 10
75742177.576
 20
23396251.0719982
 10
75742196.5600001
 20
23396194.1559982
 10
75742216.0360001
 20
23396137.4079982
 10
75742236.0400001
 20
23396080.8399981
 10
75742256.536
 20
23396024.4399981
 10
75742277.536
 20
23395968.2319981
 10
75742296.0040001
 20
23395920.0039981
  0
LWPOLYLINE
  5
20048
  8
0
100
AcDbEntity
100
AcDbPolyline
 70
0
 90
19
 62
7
370
0
 10
75742327.4200001
 20
23391868.0479981
 10
75742282.468
 20
23391819.6159981
 10
75742242.5680001
 20
23391774.8079981
 10
75742203.508
 20
23391729.2679981
 10
75742165.3240001
 20
23391682.9839982
 10
75742120.3480001
 20
23391626.7759983
 10
75742081.9720001
 20
23391580.6479981
 10
75742043.5480001
 20
23391534.5679982
 10
75742005.0400001
 20
23391488.5599981
 10
75741966.4720001
 20
23391442.5999982
 10
75741927.8320001
 20
23391396.6999982
 10
75741889.132
 20
23391350.8479982
 10
75741850.3480001
 20
23391305.0559982
 10
75741811.5040001
 20
23391259.3359983
 10
75741787.8760001
 20
23391231.6039981
 10
75740952.004
 20
23391960.0039981
 10
75741060.52
 20
23392079.535998
 10
75741516.0040001
 20
23392584.0039983
 10
75742327.4200001
 20
23391868.0479981
  0
LWPOLYLINE
  5
20049
  8
0
100
AcDbEntity
100
AcDbPolyline
 70
0
 90
14
 62
7
370
0
 10
75742128.0040001
 20
23404092.0039982
 10
75742562.3320002
 20
23403409.4919981
 10
75741780.0040001
 20
23402892.0039983
 10
75741726.88
 20
23402837.3199982
 10
75741084.0040001
 20
23403780.0039982
 10
75741720.004
 20
23404188.0039982
 10
75741773.7640001
 20
23404214.4159981
 10
75741831.7480002
 20
23404229.4279983
 10
75741891.58
 20
23404232.4279982
 10
75741950.7640002
 20
23404223.2959982
 10
75742006.9000002
 20
23404202.4039982
 10
75742057.66
 20
23404170.6159983
 10
75742100.9560002
 20
23404129.2399982
 10
75742128.0040001
 20
23404092.0039982
  0
LWPOLYLINE
  5
2004A
  8
0
100
AcDbEntity
100
AcDbPolyline
 70
0
 90
12
 62
7
370
0
 10
75741060.0040001
 20
23389536.0039981
 10
75741360.0040001
 20
23389860.0039981
 10
75741401.188
 20
23389903.6359983
 10
75741442.2760002
 20
23389947.3639981
 10
75741483.2800001
 20
23389991.1639983
 10
75741524.2000001
 20
23390035.0479981
 10
75741565.024
 20
23390079.0159982
 10
75741605.7640002
 20
23390123.0679983
 10
75742435.036
 20
23389360.5639981
 10
75742380.004
 20
23389296.0039981
 10
75741893.1280001
 20
23388751.4199981
 10
75741060.0040001
 20
23389536.0039981
  0
LWPOLYLINE
  5
2004B
  8
0
100
AcDbEntity
100
AcDbPolyline
 70
0
 90
13
 62
7
370
0
 10
75742537.7680001
 20
23400649.0359982
 10
75742668.6280001
 20
23400444.3999982
 10
75741641.0440001
 20
23399858.8719982
 10
75741615.232
 20
23399901.5799982
 10
75741583.7680001
 20
23399952.6759981
 10
75741551.8600001
 20
23400003.4839982
 10
75741519.5440001
 20
23400054.0279983
 10
75741486.784
 20
23400104.3079983
 10
75741453.604
 20
23400154.3119982
 10
75741420.004
 20
23400204.0039981
 10
75741205.8040001
 20
23400529.1199981
 10
75742214.9320002
 20
23401153.8759983
 10
75742537.7680001
 20
23400649.0359982
  0
LWPOLYLINE
  5
2004C
  8
0
100
AcDbEntity
100
AcDbPolyline
 70
0
 90
294
 62
7
370
0
 10
75744782.5600001
 20
23406816.9519981
 10
75744924.0160001
 20
23406228.0039982
 10
75745991.872
 20
23406408.7719982
 10
75748752.0040001
 20
23406876.0039981
 10
75748956.0040001
 20
23406708.0039982
 10
75748979.896
 20
23405328.7479982
 10
75748974.6010001
 20
23405328.0279982
 10
75748464.004
 20
23405256.0039981
 10
75748405.6840001
 20
23405242.0239981
 10
75748346.4760001
 20
23405232.3159981
 10
75748286.7280001
 20
23405226.9039982
 10
75748226.7640001
 20
23405225.8479982
 10
75748166.8600002
 20
23405229.1119982
 10
75748140.0040001
 20
23405232.0039981
 10
75748080.2800001
 20
23405226.4599982
 10
75748021.1560001
 20
23405216.3199983
 10
75747962.992
 20
23405201.6439981
 10
75747906.1360001
 20
23405182.5159982
 10
75747850.936
 20
23405159.0439981
 10
75747797.704
 20
23405131.3839982
 10
75747746.7760002
 20
23405099.6919982
 10
75747696.2080001
 20
23405061.3279982
 10
75747653.0080001
 20
23405025.0039982
 10
75747610.732
 20
23404982.4519982
 10
75747571.8760002
 20
23404936.7559982
 10
75747536.6440001
 20
23404888.2039981
 10
75747505.3
 20
23404837.0719982
 10
75747477.9760001
 20
23404783.6599982
 10
75747454.8640001
 20
23404728.3039982
 10
75747436.108
 20
23404671.3279981
 10
75747421.8040001
 20
23404613.0799981
 10
75747412.0480001
 20
23404553.8839981
 10
75747406.8880001
 20
23404494.1239982
 10
75747406.372
 20
23404434.1479981
 10
75747410.4880001
 20
23404374.3039983
 10
75747419.2120001
 20
23404314.9519981
 10
75747432.0040001
 20
23404260.0039982
 10
75747450.244
 20
23404199.1639983
 10
75747472.396
 20
23404143.4119981
 10
75747498.7840001
 20
23404089.5439981
 10
75747530.0560001
 20
23404025.9559982
 10
75747554.344
 20
23403971.0919981
 10
75747576.844
 20
23403915.4839983
 10
75747597.5200001
 20
23403859.1559981
 10
75747616.372
 20
23403802.1919984
 10
75747633.3520001
 20
23403744.6639983
 10
75747648.4600001
 20
23403686.5839982
 10
75747660.0040001
 20
23403636.0039981
 10
75747852.0040001
 20
23402868.0039982
 10
75747924.0040001
 20
23402580.003998
 10
75748188.004
 20
23401524.0039982
 10
75748204.588
 20
23401466.3559981
 10
75748221.316
 20
23401408.7199983
 10
75748238.188
 20
23401351.1439982
 10
75748255.1920002
 20
23401293.6039981
 10
75748272.3400001
 20
23401236.0999982
 10
75748289.62
 20
23401178.6439981
 10
75748307.0440001
 20
23401121.2359983
 10
75748324.6120001
 20
23401063.8639982
 10
75748342.3
 20
23401006.5279983
 10
75748360.1440001
 20
23400949.2399981
 10
75748378.12
 20
23400891.9999982
 10
75748396.2520001
 20
23400834.7959982
 10
75748414.4920001
 20
23400777.6399981
 10
75748432.8880002
 20
23400720.5319981
 10
75748451.4160001
 20
23400663.4719982
 10
75748470.076
 20
23400606.4479982
 10
75748488.892
 20
23400549.4719981
 10
75748507.828
 20
23400492.5319982
 10
75748526.9080001
 20
23400435.6519982
 10
75748546.1320001
 20
23400378.8079981
 10
75748565.4880001
 20
23400322.0239981
 10
75748584.9880001
 20
23400265.2759982
 10
75748604.62
 20
23400208.5759981
 10
75748624.384
 20
23400151.9239981
 10
75748644.2920001
 20
23400095.3319982
 10
75748656.7240001
 20
23400060.2559981
 10
75748664.3320002
 20
23400038.7759982
 10
75748684.5160001
 20
23399982.2679982
 10
75748704.8320002
 20
23399925.8079982
 10
75748725.2800001
 20
23399869.4079982
 10
75748745.884
 20
23399813.0439982
 10
75748766.5960001
 20
23399756.7399982
 10
75748787.452
 20
23399700.4839982
 10
75748808.4520001
 20
23399644.2759983
 10
75748829.5840001
 20
23399588.1279981
 10
75748850.8480001
 20
23399532.0159982
 10
75748860.0040001
 20
23399508.0039981
 10
75748881.8080001
 20
23399452.1079981
 10
75748903.492
 20
23399396.1399983
 10
75748925.032
 20
23399340.1599981
 10
75748946.4760001
 20
23399284.119998
 10
75748967.7640001
 20
23399228.0319982
 10
75748988.9560002
 20
23399171.8959981
 10
75749010.0040001
 20
23399115.6999981
 10
75749030.9440001
 20
23399059.4799982
 10
75749051.7520001
 20
23399003.1999982
 10
75749072.4280001
 20
23398946.8839981
 10
75749092.996
 20
23398890.5079981
 10
75749113.4200001
 20
23398834.0959982
 10
75749133.7360001
 20
23398777.6359984
 10
75749153.92
 20
23398721.1399982
 10
75749173.9840001
 20
23398664.5959981
 10
75749181.532
 20
23398643.1639983
 10
75749193.9160002
 20
23398608.0039981
 10
75749213.7280001
 20
23398551.3639982
 10
75749233.4080001
 20
23398494.6879982
 10
75749252.968
 20
23398437.9639982
 10
75749272.396
 20
23398381.1919983
 10
75749291.704
 20
23398324.3839981
 10
75749310.8920001
 20
23398267.5399983
 10
75749329.9480001
 20
23398210.6479981
 10
75749348.8600002
 20
23398153.7079982
 10
75749367.676
 20
23398096.7319981
 10
75749386.3600001
 20
23398039.7079982
 10
75749404.912
 20
23397982.6479981
 10
75749423.3320002
 20
23397925.5519981
 10
75749441.6320001
 20
23397868.407998
 10
75749459.8120001
 20
23397811.2279981
 10
75749477.8480002
 20
23397754.0119982
 10
75749495.7760002
 20
23397696.7479983
 10
75749507.26
 20
23397637.1679982
 10
75749506.5280001
 20
23397577.2759982
 10
75749493.844
 20
23397518.7399982
 10
75749469.7240001
 20
23397463.9119981
 10
75749435.1400001
 20
23397414.9999983
 10
75749391.4720002
 20
23397374.0079981
 10
75749340.496
 20
23397342.5559982
 10
75749292.004
 20
23397324.0039982
 10
75749261.4040001
 20
23397315.4599983
 10
75749203.576
 20
23397299.4639982
 10
75749145.7000001
 20
23397283.6479982
 10
75749087.7760002
 20
23397267.9999982
 10
75749029.8040001
 20
23397252.5439982
 10
75748971.772
 20
23397237.2679982
 10
75748913.704
 20
23397222.1719981
 10
75748855.5880001
 20
23397207.243998
 10
75748797.4360001
 20
23397192.495998
 10
75748739.2240002
 20
23397177.939998
 10
75748680.9760001
 20
23397163.563998
 10
75748622.6800001
 20
23397149.3679981
 10
75748564.3240001
 20
23397135.3399982
 10
75748505.9560002
 20
23397121.5039982
 10
75748447.5280001
 20
23397107.8479982
 10
75748389.064
 20
23397094.3719981
 10
75748330.552
 20
23397081.0879981
 10
75748272.0160001
 20
23397067.9719981
 10
75748213.4200001
 20
23397055.0359981
 10
75748154.788
 20
23397042.2919981
 10
75748096.12
 20
23397029.727998
 10
75748037.4040001
 20
23397017.3439981
 10
75747978.6640002
 20
23397005.1519983
 10
75747919.8760001
 20
23396993.1159981
 10
75747861.064
 20
23396981.2719981
 10
75747802.204
 20
23396969.6199981
 10
75747750.1120001
 20
23396959.4799981
 10
75747743.3080001
 20
23396958.1599982
 10
75747684.3760001
 20
23396946.8559981
 10
75747625.4200001
 20
23396935.7439982
 10
75747566.4280001
 20
23396924.8239982
 10
75747507.4000001
 20
23396914.0719982
 10
75747448.3240001
 20
23396903.5119983
 10
75747389.2360001
 20
23396893.1319982
 10
75747330.1000001
 20
23396882.9439982
 10
75747270.952
 20
23396872.9359981
 10
75747211.756
 20
23396863.1079981
 10
75747152.536
 20
23396853.4599983
 10
75747093.2920001
 20
23396844.0039982
 10
75747034.0120001
 20
23396834.7279981
 10
75746974.6960001
 20
23396825.6319982
 10
75746915.3680001
 20
23396816.7279981
 10
75746856.0040001
 20
23396808.0039982
 10
75746817.148
 20
23396798.7999982
 10
75746758.372
 20
23396786.7999981
 10
75746699.176
 20
23396776.9839982
 10
75746639.6680001
 20
23396769.3999982
 10
75746579.908
 20
23396764.0359983
 10
75746519.98
 20
23396760.9039981
 10
75746460.0040001
 20
23396759.9919982
 10
75746408.3320002
 20
23396754.1839981
 10
75746348.632
 20
23396758.8999982
 10
75746291.1280001
 20
23396775.6399983
 10
75746238.2200002
 20
23396803.7199983
 10
75746192.116
 20
23396841.9639981
 10
75746154.7480002
 20
23396888.7639982
 10
75746127.6640001
 20
23396942.187998
 10
75746112.0040001
 20
23397000.0039982
 10
75746102.0440001
 20
23397055.3239982
 10
75746091.1960002
 20
23397114.3399981
 10
75746080.2040001
 20
23397173.3199982
 10
75746068.9840001
 20
23397232.2639982
 10
75746057.5840001
 20
23397291.1719983
 10
75746045.98
 20
23397350.0439982
 10
75746034.1960002
 20
23397408.8679981
 10
75746022.2200001
 20
23397467.6439982
 10
75746010.0400002
 20
23397526.4079982
 10
75745997.6800001
 20
23397585.1239982
 10
75745985.1280001
 20
23397643.7919982
 10
75745972.396
 20
23397702.4239982
 10
75745959.436
 20
23397761.0199982
 10
75745946.3080001
 20
23397819.5679983
 10
75745932.9880001
 20
23397878.0679982
 10
75745919.4760001
 20
23397936.5199981
 10
75745905.772
 20
23397994.9359982
 10
75745891.8760001
 20
23398053.3039983
 10
75745877.8
 20
23398111.6239983
 10
75745863.52
 20
23398169.9079982
 10
75745849.9360001
 20
23398224.6159982
 10
75745849.051
 20
23398228.1289981
 10
75745834.4080001
 20
23398286.3199982
 10
75745819.552
 20
23398344.4599982
 10
75745804.5280002
 20
23398402.5399983
 10
75745789.3
 20
23398460.5719981
 10
75745773.88
 20
23398518.5679982
 10
75745758.2800001
 20
23398576.479998
 10
75745742.4880001
 20
23398634.3799981
 10
75745726.5040001
 20
23398692.2199982
 10
75745710.34
 20
23398749.9879982
 10
75745693.9720002
 20
23398807.7199982
 10
75745677.424
 20
23398865.3919982
 10
75745660.6960002
 20
23398923.0159982
 10
75745643.7640001
 20
23398980.5799981
 10
75745626.6520002
 20
23399038.0839982
 10
75745609.3600002
 20
23399095.5399982
 10
75745591.8760001
 20
23399152.9359982
 10
75745574.2
 20
23399210.2719981
 10
75745556.3320002
 20
23399267.5599982
 10
75745538.284
 20
23399324.7639981
 10
75745520.0440001
 20
23399381.9319982
 10
75745501.6240002
 20
23399439.0279983
 10
75745483.024
 20
23399496.075998
 10
75745464.2200001
 20
23399553.0639981
 10
75745459.7080001
 20
23399566.5759981
 10
75745445.2480002
 20
23399609.9679981
 10
75745426.0720001
 20
23399666.8239982
 10
75745406.728
 20
23399723.6199981
 10
75745387.1800002
 20
23399780.3559981
 10
75745367.464
 20
23399837.0199981
 10
75745347.5440001
 20
23399893.6239982
 10
75745327.4680001
 20
23399950.1559981
 10
75745307.2000001
 20
23400006.6279982
 10
75745286.716
 20
23400063.0279982
 10
75745266.076
 20
23400119.3679981
 10
75745245.2440001
 20
23400175.6359982
 10
75745224.232
 20
23400231.8319983
 10
75745203.0400001
 20
23400287.9799982
 10
75745181.6560001
 20
23400344.0199981
 10
75745160.092
 20
23400400.0119982
 10
75745138.3480001
 20
23400455.9319982
 10
75745116.412
 20
23400511.7799982
 10
75745094.3080001
 20
23400567.5559982
 10
75745072.0120002
 20
23400623.2839981
 10
75745049.536
 20
23400678.8919982
 10
75745026.8800001
 20
23400734.4519982
 10
75745004.0440001
 20
23400789.9399982
 10
75744981.0280001
 20
23400845.3439981
 10
75744957.8200001
 20
23400900.6759981
 10
75744934.42
 20
23400955.9239981
 10
75744930.0040001
 20
23400966.3279981
 10
75744910.8760001
 20
23401011.1239982
 10
75744887.1520001
 20
23401066.2279982
 10
75744863.2240002
 20
23401121.2479983
 10
75744839.116
 20
23401176.1959982
 10
75744814.8400001
 20
23401231.0599981
 10
75744790.384
 20
23401285.8639982
 10
75744765.7480001
 20
23401340.5599981
 10
75744740.9320001
 20
23401395.183998
 10
75744715.9360001
 20
23401449.7359981
 10
75744690.76
 20
23401504.1919982
 10
75744665.4160002
 20
23401558.5759981
 10
75744639.8800001
 20
23401612.8759983
 10
75744614.176
 20
23401667.0919981
 10
75744588.2920001
 20
23401721.2239982
 10
75744562.228
 20
23401775.2599982
 10
75744535.996
 20
23401829.2239982
 10
75744509.5840001
 20
23401883.1039981
 10
75744483.0040001
 20
23401936.8879982
 10
75744456.232
 20
23401990.5879981
 10
75744429.2920002
 20
23402044.2039981
 10
75744402.1840001
 20
23402097.7239982
 10
75744374.8960001
 20
23402151.1599981
 10
75744347.44
 20
23402204.5119982
 10
75744323.6560001
 20
23402249.3319982
 10
75744291.9880001
 20
23402310.9279982
 10
75744264.0040001
 20
23402364.0039982
 10
75743740.8880002
 20
23403218.6679982
 10
75743147.6920002
 20
23404187.8119981
 10
75742557.4480001
 20
23405152.1679981
 10
75742449.3880001
 20
23405328.0039981
 10
75742448.8240001
 20
23405328.9399981
 10
75741367.1920001
 20
23407089.0399983
 10
75744264.0040001
 20
23408976.0039982
 10
75744382.2640001
 20
23408483.5839983
 10
75744782.5600001
 20
23406816.9519981
  0
LWPOLYLINE
  5
2004D
  8
0
100
AcDbEntity
100
AcDbPolyline
 70
0
 90
159
 62
7
370
0
 10
75749304.0040001
 20
23394180.0039981
 10
75748213.5880001
 20
23393772.5919982
 10
75748416.0040001
 20
23394360.0039982
 10
75746268.0040001
 20
23394612.0039982
 10
75746275.9240001
 20
23394631.4679982
 10
75746281.6720001
 20
23394691.2039981
 10
75746286.3880002
 20
23394751.0119983
 10
75746290.0720001
 20
23394810.8799981
 10
75746292.7240001
 20
23394870.8319982
 10
75746294.356
 20
23394930.8079981
 10
75746294.9320001
 20
23394990.8079981
 10
75746294.5000002
 20
23395050.8079982
 10
75746293.036
 20
23395110.7839981
 10
75746290.5280001
 20
23395170.7359982
 10
75746287.0000001
 20
23395230.6279981
 10
75746282.44
 20
23395290.4599982
 10
75746276.8480001
 20
23395350.1959982
 10
75746270.2240001
 20
23395409.8239982
 10
75746268.004
 20
23395428.0039982
 10
75746196.0040001
 20
23395992.0039981
 10
75746568.0040001
 20
23396040.0039982
 10
75746952.0040001
 20
23396088.0039982
 10
75747011.2360002
 20
23396097.5799981
 10
75747070.4440002
 20
23396107.3119982
 10
75747129.6160001
 20
23396117.1759981
 10
75747188.7760002
 20
23396127.2079982
 10
75747247.924
 20
23396137.3719981
 10
75747307.0120001
 20
23396147.6919983
 10
75747366.1000001
 20
23396158.1679982
 10
75747425.1520002
 20
23396168.7759982
 10
75747484.1800001
 20
23396179.5399983
 10
75747543.1720001
 20
23396190.4479981
 10
75747602.1520002
 20
23396201.5119982
 10
75747661.0960002
 20
23396212.7199983
 10
75747720.0040001
 20
23396224.0719982
 10
75747778.9000001
 20
23396235.5799981
 10
75747837.7480002
 20
23396247.2319981
 10
75747896.5840001
 20
23396259.0279982
 10
75747955.3840001
 20
23396270.9799982
 10
75748014.148
 20
23396283.0759981
 10
75748072.8880001
 20
23396295.3159981
 10
75748131.592
 20
23396307.6999982
 10
75748190.272
 20
23396320.2399981
 10
75748248.9160001
 20
23396332.9239981
 10
75748307.524
 20
23396345.7519982
 10
75748366.108
 20
23396358.7239982
 10
75748424.656
 20
23396371.8519982
 10
75748483.1680001
 20
23396385.1239982
 10
75748541.644
 20
23396398.5399982
 10
75748600.0960002
 20
23396412.0999982
 10
75748658.5000001
 20
23396425.8159981
 10
75748716.88
 20
23396439.6639984
 10
75748775.2240001
 20
23396453.6679982
 10
75748833.5320001
 20
23396467.815998
 10
75748891.8040002
 20
23396482.1199981
 10
75748950.0400001
 20
23396496.5559982
 10
75749008.2400001
 20
23396511.1479981
 10
75749066.4040001
 20
23396525.8839981
 10
75749124.5320001
 20
23396540.7639982
 10
75749182.6240002
 20
23396555.7879981
 10
75749240.6680001
 20
23396570.9559982
 10
75749298.676
 20
23396586.2799983
 10
75749356.6600001
 20
23396601.7359982
 10
75749414.5840001
 20
23396617.3479982
 10
75749472.4840002
 20
23396633.1039981
 10
75749530.3360001
 20
23396648.9919982
 10
75749588.1520001
 20
23396665.0359981
 10
75749645.9320001
 20
23396681.2239982
 10
75749703.6640002
 20
23396697.5679981
 10
75749761.3600001
 20
23396714.0559981
 10
75749819.008
 20
23396730.6639982
 10
75749876.62
 20
23396747.4279982
 10
75749934.1840001
 20
23396764.3359982
 10
75749991.712
 20
23396781.3999983
 10
75750049.1920002
 20
23396798.5959983
 10
75750106.6240002
 20
23396815.9479982
 10
75750120.0040001
 20
23396820.0039981
 10
75750372.0040001
 20
23396904.0039982
 10
75750624.0040001
 20
23397000.0039982
 10
75750680.9320001
 20
23397018.9639981
 10
75750737.8120001
 20
23397038.0559982
 10
75750794.6440001
 20
23397057.2919981
 10
75750851.4280002
 20
23397076.6719981
 10
75750908.1520001
 20
23397096.1719982
 10
75750964.852
 20
23397115.8399982
 10
75751021.5040001
 20
23397135.6279981
 10
75751078.0960001
 20
23397155.5479981
 10
75751134.6400001
 20
23397175.6119982
 10
75751191.1360002
 20
23397195.8199981
 10
75751247.5840001
 20
23397216.1599982
 10
75751303.9840001
 20
23397236.6439982
 10
75751360.3240001
 20
23397257.2599981
 10
75751416.6160001
 20
23397278.0079982
 10
75751472.872
 20
23397298.8999983
 10
75751529.0680002
 20
23397319.9239981
 10
75751585.204
 20
23397341.091998
 10
75751641.3040002
 20
23397362.3919982
 10
75751697.344
 20
23397383.8239982
 10
75751753.3360001
 20
23397405.3999982
 10
75751809.256
 20
23397427.1079981
 10
75751865.1400001
 20
23397448.9479982
 10
75751920.9640001
 20
23397470.9439982
 10
75751976.74
 20
23397493.0599981
 10
75752032.468
 20
23397515.3199982
 10
75752088.1240002
 20
23397537.6999982
 10
75752143.744
 20
23397560.2359983
 10
75752199.2920002
 20
23397582.8919981
 10
75752254.7920001
 20
23397605.7039981
 10
75752310.244
 20
23397628.6239983
 10
75752365.6240001
 20
23397651.6879981
 10
75752420.9560002
 20
23397674.8959981
 10
75752476.2400001
 20
23397698.2359983
 10
75752531.452
 20
23397721.7199982
 10
75752586.604
 20
23397745.3119981
 10
75752641.7200002
 20
23397769.0479983
 10
75752696.7640001
 20
23397792.9279984
 10
75752751.7480002
 20
23397816.9279983
 10
75752806.684
 20
23397841.0719981
 10
75752861.5480001
 20
23397865.3599983
 10
75752916.3640001
 20
23397889.7679982
 10
75752971.108
 20
23397914.3079982
 10
75753025.8040002
 20
23397938.9919981
 10
75753080.4280002
 20
23397963.7959981
 10
75753135.0040001
 20
23397988.7439981
 10
75753189.5080001
 20
23398013.8239982
 10
75753243.9400001
 20
23398039.0119983
 10
75753298.3360001
 20
23398064.3679981
 10
75753352.6600001
 20
23398089.8439981
 10
75753406.924
 20
23398115.451998
 10
75753461.1160001
 20
23398141.1919982
 10
75753515.26
 20
23398167.0639981
 10
75753569.3320001
 20
23398193.0679983
 10
75753623.344
 20
23398219.2039981
 10
75753677.284
 20
23398245.4719983
 10
75753731.1640001
 20
23398271.8719981
 10
75753784.9840002
 20
23398298.3919982
 10
75753838.7200001
 20
23398325.0439982
 10
75753892.4200001
 20
23398351.8519981
 10
75753946.036
 20
23398378.7679982
 10
75753996.004
 20
23398404.0039983
 10
75754656.0040001
 20
23398728.0039982
 10
75754712.8480001
 20
23398746.9279982
 10
75754772.2120001
 20
23398755.0159982
 10
75754832.0560001
 20
23398751.9799981
 10
75754890.2920002
 20
23398737.9279982
 10
75754944.9280002
 20
23398713.3399982
 10
75754994.08
 20
23398679.0679983
 10
75755036.0320001
 20
23398636.2999981
 10
75755064.0040001
 20
23398596.0039982
 10
75755784.004
 20
23397096.0159983
 10
75755026.5160001
 20
23396739.1719981
 10
75754332.0040001
 20
23396412.0039982
 10
75753729.0040001
 20
23396081.4999981
 10
75753084.0040001
 20
23395728.0039983
 10
75752352.0040001
 20
23395392.0039981
 10
75751632.004
 20
23395056.0039981
 10
75750864.004
 20
23394756.0039982
 10
75750166.132
 20
23394497.0799981
 10
75749304.0040001
 20
23394180.0039981
  0
LWPOLYLINE
  5
2004E
  8
0
100
AcDbEntity
100
AcDbPolyline
 70
0
 90
161
 62
7
370
0
 10
75751406.2360001
 20
23400757.7199982
 10
75751920.0040001
 20
23399844.0039983
 10
75752592.0040001
 20
23400228.0039982
 10
75753240.316
 20
23398823.3919982
 10
75753224.9320001
 20
23398815.8559981
 10
75753170.9560001
 20
23398789.6479981
 10
75753116.9080001
 20
23398763.5839982
 10
75753062.8000001
 20
23398737.6639982
 10
75753008.608
 20
23398711.8999982
 10
75752954.356
 20
23398686.2799982
 10
75752900.0320001
 20
23398660.8159981
 10
75752845.6360001
 20
23398635.4959981
 10
75752791.1680002
 20
23398610.3199982
 10
75752736.6400002
 20
23398585.2879981
 10
75752682.0400002
 20
23398560.4239982
 10
75752627.3680001
 20
23398535.6919983
 10
75752572.6240001
 20
23398511.1039981
 10
75752517.844
 20
23398486.6719982
 10
75752462.968
 20
23398462.3839981
 10
75752408.0320001
 20
23398438.263998
 10
75752353.036
 20
23398414.2879981
 10
75752297.968
 20
23398390.4559982
 10
75752242.84
 20
23398366.7679981
 10
75752187.6520001
 20
23398343.2479982
 10
75752132.3920001
 20
23398319.8599982
 10
75752077.0720001
 20
23398296.6279981
 10
75752021.6920001
 20
23398273.5519981
 10
75751966.24
 20
23398250.6319981
 10
75751910.7400001
 20
23398227.8439981
 10
75751855.1680001
 20
23398205.2239983
 10
75751799.5360001
 20
23398182.7479982
 10
75751787.2000001
 20
23398177.8039983
 10
75751743.844
 20
23398160.4279983
 10
75751688.092
 20
23398138.2519981
 10
75751632.2680001
 20
23398116.231998
 10
75751576.396
 20
23398094.3679982
 10
75751520.464
 20
23398072.6479981
 10
75751464.4720001
 20
23398051.0719981
 10
75751408.4200001
 20
23398029.6759981
 10
75751352.3320002
 20
23398008.4239982
 10
75751296.148
 20
23397987.3159981
 10
75751239.9280002
 20
23397966.3639981
 10
75751183.648
 20
23397945.5679982
 10
75751127.3080001
 20
23397924.9159982
 10
75751070.9200001
 20
23397904.4319982
 10
75751014.4720002
 20
23397884.0919981
 10
75750957.9640001
 20
23397863.9199981
 10
75750901.4080001
 20
23397843.8799982
 10
75750844.7920001
 20
23397824.0079981
 10
75750788.1280001
 20
23397804.2919982
 10
75750731.4160002
 20
23397784.7199982
 10
75750674.632
 20
23397765.3159982
 10
75750617.812
 20
23397746.0559981
 10
75750560.9320001
 20
23397726.9639982
 10
75750504.0160001
 20
23397708.0039981
 10
75750453.148
 20
23397697.563998
 10
75750393.2560001
 20
23397696.6879981
 10
75750334.384
 20
23397707.787998
 10
75750278.9320001
 20
23397730.4319983
 10
75750229.12
 20
23397763.6839982
 10
75750186.952
 20
23397806.2359982
 10
75750154.144
 20
23397856.3479982
 10
75750132.0160001
 20
23397912.0039982
 10
75750123.5320001
 20
23397937.8039982
 10
75750104.7640001
 20
23397994.7919982
 10
75750085.912
 20
23398051.7559982
 10
75750066.9880001
 20
23398108.6959982
 10
75750047.98
 20
23398165.5999982
 10
75750028.8880002
 20
23398222.479998
 10
75750009.7240001
 20
23398279.3479982
 10
75749990.4880001
 20
23398336.1799982
 10
75749971.1560001
 20
23398392.9759982
 10
75749951.7640001
 20
23398449.7599981
 10
75749932.3000001
 20
23398506.5079981
 10
75749912.7280001
 20
23398563.2319981
 10
75749893.0960001
 20
23398619.9319982
 10
75749873.3800001
 20
23398676.5959983
 10
75749853.592
 20
23398733.2359983
 10
75749833.7200001
 20
23398789.8519982
 10
75749813.7640001
 20
23398846.4559982
 10
75749793.7480002
 20
23398902.9999981
 10
75749773.6480001
 20
23398959.5319981
 10
75749763.16
 20
23398988.8479983
 10
75749753.452
 20
23399016.0399982
 10
75749733.1960001
 20
23399072.5119983
 10
75749712.856
 20
23399128.9599981
 10
75749692.4440002
 20
23399185.3839982
 10
75749671.9360001
 20
23399241.7719981
 10
75749651.38
 20
23399298.1359982
 10
75749630.7280001
 20
23399354.4639982
 10
75749610.0040001
 20
23399410.7679982
 10
75749589.1960001
 20
23399467.0479981
 10
75749568.316
 20
23399523.3039983
 10
75749547.352
 20
23399579.5239981
 10
75749526.316
 20
23399635.6959981
 10
75749505.1960001
 20
23399691.8679981
 10
75749484.0040001
 20
23399748.0039982
 10
75749476.9720002
 20
23399767.5519981
 10
75749456.7160001
 20
23399824.023998
 10
75749436.5440001
 20
23399880.5319981
 10
75749416.4440002
 20
23399937.0639981
 10
75749396.44
 20
23399993.6319982
 10
75749376.5200001
 20
23400050.2359982
 10
75749356.6960001
 20
23400106.8639981
 10
75749336.9440001
 20
23400163.5159981
 10
75749317.2760002
 20
23400220.2039981
 10
75749297.704
 20
23400276.9159982
 10
75749286.3040001
 20
23400310.0479981
 10
75749278.204
 20
23400333.6639983
 10
75749258.8
 20
23400390.4359982
 10
75749239.468
 20
23400447.2439981
 10
75749220.232
 20
23400504.0759981
 10
75749201.08
 20
23400560.9319981
 10
75749182.0120002
 20
23400617.8239982
 10
75749163.0280002
 20
23400674.7399982
 10
75749144.1400002
 20
23400731.6919983
 10
75749125.3240001
 20
23400788.6679982
 10
75749106.592
 20
23400845.6679982
 10
75749087.9560002
 20
23400902.6919983
 10
75749069.4040001
 20
23400959.7519982
 10
75749050.9360001
 20
23401016.8479982
 10
75749032.552
 20
23401073.9559982
 10
75749014.2520001
 20
23401131.0999982
 10
75748996.036
 20
23401188.2679982
 10
75748977.9280001
 20
23401245.4599983
 10
75748959.8800001
 20
23401302.6879981
 10
75748941.9160001
 20
23401359.9279982
 10
75748924.048
 20
23401417.2159981
 10
75748906.288
 20
23401474.5159981
 10
75748894.816
 20
23401511.6319982
 10
75748888.5760001
 20
23401531.8519981
 10
75748870.9600001
 20
23401589.2119981
 10
75748853.44
 20
23401646.5959983
 10
75748836.004
 20
23401704.0039982
 10
75748572.0040001
 20
23402748.0039981
 10
75748493.6560001
 20
23403061.383998
 10
75748307.9920001
 20
23403804.0039981
 10
75748303.7080002
 20
23403822.5079981
 10
75748290.616
 20
23403881.0679983
 10
75748278.244
 20
23403939.7719982
 10
75748266.58
 20
23403998.6319981
 10
75748255.6720001
 20
23404057.6359982
 10
75748245.4720001
 20
23404116.7599981
 10
75748236.0040001
 20
23404176.0039981
 10
75748230.2200001
 20
23404235.6559982
 10
75748234.7680001
 20
23404295.3919982
 10
75748249.5280001
 20
23404353.4839982
 10
75748274.0440001
 20
23404408.1559982
 10
75748307.608
 20
23404457.7999981
 10
75748349.2000001
 20
23404500.9399981
 10
75748386.5680001
 20
23404540.8399982
 10
75748451.344
 20
23404562.7879981
 10
75748508.8480001
 20
23404579.6479981
 10
75748536.0040001
 20
23404584.0039982
 10
75749591.872
 20
23404740.8799981
 10
75749916.0040001
 20
23403408.0039982
 10
75750131.9440002
 20
23403023.967998
 10
75750660.0040001
 20
23402100.0039982
 10
75750827.176
 20
23401787.5359981
 10
75751272.0040001
 20
23401008.0039981
 10
75751406.2360001
 20
23400757.7199982
  0
LWPOLYLINE
  5
2004F
  8
0
100
AcDbEntity
100
AcDbPolyline
 70
0
 90
11
 62
7
370
0
 10
75742562.3320002
 20
23403409.4919981
 10
75742884.004
 20
23402904.0039981
 10
75742915.7920002
 20
23402853.1119982
 10
75742947.412
 20
23402802.1239983
 10
75742978.8640001
 20
23402751.0279982
 10
75742994.452
 20
23402725.5039982
 10
75741741.412
 20
23401894.3479982
 10
75741372.0040001
 20
23402472.0039982
 10
75741726.88
 20
23402837.3199982
 10
75741780.0040001
 20
23402892.0039983
 10
75742562.3320002
 20
23403409.4919981
  0
LWPOLYLINE
  5
20050
  8
0
100
AcDbEntity
100
AcDbPolyline
 70
0
 90
18
 62
7
370
0
 10
75742896.1000001
 20
23392343.8599982
 10
75742871.62
 20
23392327.815998
 10
75742822.0840001
 20
23392293.9879982
 10
75742773.172
 20
23392259.2359983
 10
75742724.9200001
 20
23392223.5599982
 10
75742677.3520001
 20
23392186.995998
 10
75742630.48
 20
23392149.5439982
 10
75742584.328
 20
23392111.2159981
 10
75742538.8960001
 20
23392072.0239981
 10
75742494.2080001
 20
23392031.9919982
 10
75742450.2760002
 20
23391991.1199982
 10
75742407.1240001
 20
23391949.4319982
 10
75742364.7640002
 20
23391906.9519982
 10
75742327.4200001
 20
23391868.0479981
 10
75741516.0040001
 20
23392584.0039983
 10
75741650.1040001
 20
23392713.843998
 10
75742272.0040001
 20
23393316.0039982
 10
75742896.1000001
 20
23392343.8599982
  0
LWPOLYLINE
  5
20051
  8
0
100
AcDbEntity
100
AcDbPolyline
 70
0
 90
21
 62
7
370
0
 10
75743029.396
 20
23393624.5719983
 10
75742272.0040001
 20
23393316.0039982
 10
75741504.0040001
 20
23394216.0039982
 10
75741529.396
 20
23394230.0919981
 10
75741575.632
 20
23394268.3359981
 10
75741622.1920002
 20
23394306.1719981
 10
75741669.088
 20
23394343.5999982
 10
75741716.296
 20
23394380.6319981
 10
75741763.828
 20
23394417.2559981
 10
75741811.66
 20
23394453.4599982
 10
75741859.816
 20
23394489.2559981
 10
75741908.272
 20
23394524.6319981
 10
75741957.0400002
 20
23394559.5999981
 10
75742006.0960001
 20
23394594.1359983
 10
75742055.4760001
 20
23394628.2519982
 10
75742105.108
 20
23394661.9359981
 10
75742155.052
 20
23394695.1999981
 10
75742205.2720001
 20
23394728.0199982
 10
75742255.7800001
 20
23394760.4199982
 10
75742306.5640001
 20
23394792.3759982
 10
75743029.396
 20
23393624.5719983
  0
LWPOLYLINE
  5
20052
  8
0
100
AcDbEntity
100
AcDbPolyline
 70
0
 90
20
 62
7
370
0
 10
75742907.1280001
 20
23400071.4399982
 10
75743160.0040001
 20
23399676.0039981
 10
75743076.004
 20
23399628.0039982
 10
75742020.1120002
 20
23399136.0519981
 10
75742009.1560001
 20
23399160.2439981
 10
75741983.968
 20
23399214.6999982
 10
75741958.324
 20
23399268.9399981
 10
75741932.2
 20
23399322.9519982
 10
75741905.6320001
 20
23399376.7479982
 10
75741878.608
 20
23399430.3159981
 10
75741851.1280001
 20
23399483.6559982
 10
75741823.204
 20
23399536.7559981
 10
75741794.8240001
 20
23399589.6159982
 10
75741766.0000001
 20
23399642.2479982
 10
75741736.7200002
 20
23399694.6159983
 10
75741707.008
 20
23399746.7439981
 10
75741676.8520001
 20
23399798.6199982
 10
75741641.0440001
 20
23399858.8719982
 10
75742668.6280001
 20
23400444.3999982
 10
75742907.1280001
 20
23400071.4399982
  0
LWPOLYLINE
  5
20053
  8
0
100
AcDbEntity
100
AcDbPolyline
 70
0
 90
20
 62
7
370
0
 10
75743004.0040001
 20
23390028.0159982
 10
75742523.5480001
 20
23389464.3879982
 10
75742435.036
 20
23389360.5639981
 10
75741605.7640002
 20
23390123.0679983
 10
75741646.408
 20
23390167.1919983
 10
75741686.968
 20
23390211.4119981
 10
75741727.4440001
 20
23390255.7039981
 10
75741767.824
 20
23390300.0919981
 10
75741808.108
 20
23390344.5399982
 10
75741848.3080001
 20
23390389.0839982
 10
75741888.4360001
 20
23390433.7119981
 10
75741928.4320002
 20
23390478.411998
 10
75741968.3680001
 20
23390523.1839981
 10
75742008.2080002
 20
23390568.0639981
 10
75742047.9640001
 20
23390612.9919981
 10
75742087.6240001
 20
23390658.0279982
 10
75742127.188
 20
23390703.1359982
 10
75742166.6560001
 20
23390748.3279981
 10
75742176.0040001
 20
23390760.0039982
 10
75743004.0040001
 20
23390028.0159982
  0
LWPOLYLINE
  5
20054
  8
0
100
AcDbEntity
100
AcDbPolyline
 70
0
 90
19
 62
7
370
0
 10
75742994.452
 20
23402725.5039982
 10
75743010.1360002
 20
23402699.8239981
 10
75743041.2520001
 20
23402648.5239981
 10
75743072.1880001
 20
23402597.1159982
 10
75743102.9560002
 20
23402545.5999982
 10
75743133.5440001
 20
23402493.9879983
 10
75743163.9640001
 20
23402442.2679982
 10
75743194.216
 20
23402390.4519981
 10
75743224.3000001
 20
23402338.5399981
 10
75743254.204
 20
23402286.5199981
 10
75743283.94
 20
23402234.4039983
 10
75743313.496
 20
23402182.1919983
 10
75743342.884
 20
23402129.8839981
 10
75743372.092
 20
23402077.4679981
 10
75743400.0040001
 20
23402028.0039983
 10
75742145.08
 20
23401263.0999982
 10
75741793.468
 20
23401812.939998
 10
75741741.412
 20
23401894.3479982
 10
75742994.452
 20
23402725.5039982
  0
LWPOLYLINE
  5
20055
  8
0
100
AcDbEntity
100
AcDbPolyline
 70
0
 90
18
 62
7
370
0
 10
75743170.1920001
 20
23399387.2959981
 10
75743400.0040001
 20
23398800.0039982
 10
75742285.7800001
 20
23398452.5559983
 10
75742272.0040001
 20
23398500.0039982
 10
75742255.3960001
 20
23398548.1479982
 10
75742235.38
 20
23398604.7159981
 10
75742214.884
 20
23398661.1039981
 10
75742193.92
 20
23398717.3359981
 10
75742172.4760001
 20
23398773.3519981
 10
75742150.552
 20
23398829.2119982
 10
75742128.148
 20
23398884.8799982
 10
75742105.3000001
 20
23398940.3439981
 10
75742081.9600001
 20
23398995.6279982
 10
75742058.1640001
 20
23399050.7199982
 10
75742033.9000001
 20
23399105.5839982
 10
75742020.1120002
 20
23399136.0519981
 10
75743076.004
 20
23399628.0039982
 10
75743170.1920001
 20
23399387.2959981
  0
LWPOLYLINE
  5
20056
  8
0
100
AcDbEntity
100
AcDbPolyline
 70
0
 90
18
 62
7
370
0
 10
75743750.824
 20
23401357.407998
 10
75742537.7680001
 20
23400649.0359982
 10
75742214.9320002
 20
23401153.8759983
 10
75742145.08
 20
23401263.0999982
 10
75743400.0040001
 20
23402028.0039983
 10
75743429.98
 20
23401972.3599982
 10
75743458.6720001
 20
23401919.6679982
 10
75743487.1840001
 20
23401866.8679981
 10
75743515.504
 20
23401813.9839982
 10
75743543.6680001
 20
23401761.0039981
 10
75743571.6520002
 20
23401707.9279982
 10
75743599.4560001
 20
23401654.755998
 10
75743627.092
 20
23401601.4999983
 10
75743654.536
 20
23401548.1479981
 10
75743681.8120001
 20
23401494.6999982
 10
75743708.908
 20
23401441.1679983
 10
75743735.824
 20
23401387.5399983
 10
75743750.824
 20
23401357.407998
  0
LWPOLYLINE
  5
20057
  8
0
100
AcDbEntity
100
AcDbPolyline
 70
0
 90
19
 62
7
370
0
 10
75743484.0040001
 20
23390664.0039983
 10
75743220.0040001
 20
23390316.0039982
 10
75743004.0040001
 20
23390028.0159982
 10
75742176.0040001
 20
23390760.0039982
 10
75742206.0400002
 20
23390793.5919981
 10
75742245.34
 20
23390838.9159982
 10
75742284.5320001
 20
23390884.3479982
 10
75742323.6400001
 20
23390929.8639982
 10
75742362.6640002
 20
23390975.4399981
 10
75742401.58
 20
23391021.0999981
 10
75742440.412
 20
23391066.8439981
 10
75742479.1600001
 20
23391112.6599981
 10
75742517.812
 20
23391158.5599982
 10
75742556.356
 20
23391204.5319982
 10
75742594.816
 20
23391250.5759982
 10
75742631.6800001
 20
23391300.2439982
 10
75742668.6280001
 20
23391347.5119982
 10
75742690.12
 20
23391373.563998
 10
75743484.0040001
 20
23390664.0039983
  0
LWPOLYLINE
  5
20058
  8
0
100
AcDbEntity
100
AcDbPolyline
 70
0
 90
7
 62
7
370
0
 10
75743400.0040001
 20
23398800.0039982
 10
75743432.4160001
 20
23398679.0439982
 10
75743616.0040001
 20
23398008.0039982
 10
75742484.4640001
 20
23397731.0679983
 10
75742380.0040001
 20
23398128.0039982
 10
75742285.7800001
 20
23398452.5559983
 10
75743400.0040001
 20
23398800.0039982
  0
LWPOLYLINE
  5
20059
  8
0
100
AcDbEntity
100
AcDbPolyline
 70
0
 90
19
 62
7
370
0
 10
75743567.092
 20
23392647.0039981
 10
75743551.5400002
 20
23392642.6479981
 10
75743494.1440001
 20
23392625.199998
 10
75743437.156
 20
23392606.4199981
 10
75743380.6000001
 20
23392586.3919982
 10
75743324.5120002
 20
23392565.0919981
 10
75743268.9040001
 20
23392542.5319983
 10
75743213.8360001
 20
23392518.7359982
 10
75743159.3080001
 20
23392493.703998
 10
75743105.356
 20
23392467.4599982
 10
75743052.0040001
 20
23392440.0039981
 10
75743023.9720001
 20
23392423.6479982
 10
75742972.6000001
 20
23392392.6639982
 10
75742921.8040001
 20
23392360.7199984
 10
75742896.1000001
 20
23392343.8599982
 10
75742272.0040001
 20
23393316.0039982
 10
75743029.396
 20
23393624.5719983
 10
75743244.0040001
 20
23393712.0039982
 10
75743567.092
 20
23392647.0039981
  0
LWPOLYLINE
  5
2005A
  8
0
100
AcDbEntity
100
AcDbPolyline
 70
0
 90
12
 62
7
370
0
 10
75743844.5560001
 20
23393804.3919981
 10
75743244.0040001
 20
23393712.0039982
 10
75743029.396
 20
23393624.5719983
 10
75742306.5640001
 20
23394792.3759982
 10
75742357.6120002
 20
23394823.8879983
 10
75742404.0040001
 20
23394852.0039982
 10
75742727.992
 20
23395020.0039982
 10
75743064.0160001
 20
23395188.0039982
 10
75743119.732
 20
23395210.2399981
 10
75743175.58
 20
23395232.175998
 10
75743219.548
 20
23395249.1799982
 10
75743844.5560001
 20
23393804.3919981
  0
LWPOLYLINE
  5
2005B
  8
0
100
AcDbEntity
100
AcDbPolyline
 70
0
 90
18
 62
7
370
0
 10
75743328.0040001
 20
23389464.2439981
 10
75743451.4000002
 20
23388600.3639982
 10
75743532.0040001
 20
23388036.0039982
 10
75743113.8400001
 20
23387343.0519981
 10
75743079.052
 20
23387382.9879982
 10
75743035.024
 20
23387423.7039981
 10
75742986.868
 20
23387459.4399981
 10
75742935.148
 20
23387489.7999982
 10
75742880.452
 20
23387514.4119981
 10
75742823.44
 20
23387532.9999983
 10
75742764.7480001
 20
23387545.3359981
 10
75742705.0720001
 20
23387551.2879981
 10
75742645.108
 20
23387550.7839982
 10
75742607.6920001
 20
23387546.4159983
 10
75742380.004
 20
23389296.0039981
 10
75742435.036
 20
23389360.5639981
 10
75742523.5480001
 20
23389464.3879982
 10
75743328.0040001
 20
23389464.2439981
  0
LWPOLYLINE
  5
2005C
  8
0
100
AcDbEntity
100
AcDbPolyline
 70
0
 90
9
 62
7
370
0
 10
75743616.0040001
 20
23398008.0039982
 10
75743625.2680001
 20
23397959.2719981
 10
75743808.328
 20
23397276.0879981
 10
75742668.004
 20
23396976.0039982
 10
75742656.0040001
 20
23397036.0039982
 10
75742620.0040001
 20
23397216.0039982
 10
75742500.0040001
 20
23397672.0039982
 10
75742484.4640001
 20
23397731.0679983
 10
75743616.0040001
 20
23398008.0039982
  0
LWPOLYLINE
  5
2005D
  8
0
100
AcDbEntity
100
AcDbPolyline
 70
0
 90
20
 62
7
370
0
 10
75744097.24
 20
23400636.5919982
 10
75742907.1280001
 20
23400071.4399982
 10
75742668.6280001
 20
23400444.3999982
 10
75742537.7680001
 20
23400649.0359982
 10
75743750.824
 20
23401357.407998
 10
75743762.56
 20
23401333.8279981
 10
75743789.116
 20
23401280.0319982
 10
75743815.504
 20
23401226.1399982
 10
75743841.7
 20
23401172.1639983
 10
75743867.7160001
 20
23401118.0919982
 10
75743893.564
 20
23401063.9359981
 10
75743919.2200001
 20
23401009.7079982
 10
75743944.6960001
 20
23400955.3839981
 10
75743970.0040001
 20
23400900.9879983
 10
75743976.004
 20
23400888.0039982
 10
75744002.44
 20
23400834.1479981
 10
75744028.6720001
 20
23400780.1959982
 10
75744054.7120001
 20
23400726.1239983
 10
75744080.5360001
 20
23400671.9679981
 10
75744097.24
 20
23400636.5919982
  0
LWPOLYLINE
  5
2005E
  8
0
100
AcDbEntity
100
AcDbPolyline
 70
0
 90
19
 62
7
370
0
 10
75744696.0040001
 20
23390208.0039982
 10
75744696.8800001
 20
23390158.0239981
 10
75744693.412
 20
23390098.1199981
 10
75744690.352
 20
23390038.2039981
 10
75744687.712
 20
23389978.2519982
 10
75744685.4920001
 20
23389918.2999981
 10
75744683.6920001
 20
23389858.3239982
 10
75744682.3120001
 20
23389798.3359982
 10
75744681.352
 20
23389738.3479983
 10
75744680.812
 20
23389678.3479981
 10
75744680.6920002
 20
23389618.3479982
 10
75744680.9800001
 20
23389558.3479982
 10
75744681.7000001
 20
23389498.3599982
 10
75744682.3480001
 20
23389464.0039981
 10
75743328.0040001
 20
23389464.2439981
 10
75742523.5480001
 20
23389464.3879982
 10
75743004.0040001
 20
23390028.0159982
 10
75743220.0040001
 20
23390316.0039982
 10
75744696.0040001
 20
23390208.0039982
  0
LWPOLYLINE
  5
2005F
  8
0
100
AcDbEntity
100
AcDbPolyline
 70
0
 90
39
 62
7
370
0
 10
75743824.1920001
 20
23397216.8919982
 10
75744072.9640001
 20
23396288.2359983
 10
75744037.8760001
 20
23396279.3319982
 10
75743979.8200001
 20
23396264.1999982
 10
75743921.8600002
 20
23396248.6719981
 10
75743864.008
 20
23396232.7479982
 10
75743806.2760001
 20
23396216.439998
 10
75743748.6400001
 20
23396199.7239981
 10
75743691.1360002
 20
23396182.6239983
 10
75743633.7400001
 20
23396165.1279982
 10
75743576.4640001
 20
23396147.2479982
 10
75743519.3200001
 20
23396128.9719982
 10
75743462.296
 20
23396110.3119981
 10
75743405.4040001
 20
23396091.2679981
 10
75743348.632
 20
23396071.8279981
 10
75743292.0040001
 20
23396052.0039982
 10
75743283.5320001
 20
23396039.7039981
 10
75743216.1400001
 20
23396033.2119981
 10
75743156.2480001
 20
23396032.7799982
 10
75743097.508
 20
23396044.4559982
 10
75743042.356
 20
23396067.8199982
 10
75742993.0600001
 20
23396101.8639982
 10
75742951.7200002
 20
23396145.1959982
 10
75742920.0040001
 20
23396196.0039982
 10
75742903.0600001
 20
23396231.9919981
 10
75742878.3880002
 20
23396286.6879982
 10
75742854.784
 20
23396341.8519981
 10
75742832.26
 20
23396397.4599982
 10
75742810.84
 20
23396453.4999982
 10
75742790.5000001
 20
23396509.9719982
 10
75742771.2760001
 20
23396566.7919982
 10
75742753.1560001
 20
23396623.9959981
 10
75742736.1880001
 20
23396681.535998
 10
75742720.3240001
 20
23396739.3999983
 10
75742705.588
 20
23396797.5759981
 10
75742692.0160001
 20
23396856.0039982
 10
75742668.004
 20
23396976.0039982
 10
75743808.328
 20
23397276.0879981
 10
75743824.1920001
 20
23397216.8919982
  0
LWPOLYLINE
  5
20060
  8
0
100
AcDbEntity
100
AcDbPolyline
 70
0
 90
27
 62
7
370
0
 10
75744036.0040001
 20
23391060.0039982
 10
75743484.0040001
 20
23390664.0039983
 10
75742690.12
 20
23391373.563998
 10
75742706.8120001
 20
23391393.7959981
 10
75742746.2200001
 20
23391439.0359982
 10
75742786.8040002
 20
23391483.2319981
 10
75742828.5400001
 20
23391526.3239982
 10
75742871.4160002
 20
23391568.2999982
 10
75742915.384
 20
23391609.1239983
 10
75742960.4200001
 20
23391648.7719981
 10
75743006.4880001
 20
23391687.2079982
 10
75743053.564
 20
23391724.4079981
 10
75743101.6000001
 20
23391760.3479981
 10
75743150.5840001
 20
23391795.0039982
 10
75743200.4560002
 20
23391828.3519981
 10
75743251.204
 20
23391860.3559982
 10
75743302.7800001
 20
23391891.0039982
 10
75743340.0040001
 20
23391912.0039981
 10
75743393.4640001
 20
23391939.2439981
 10
75743447.6920001
 20
23391964.9239981
 10
75743502.6400001
 20
23391989.0079981
 10
75743558.272
 20
23392011.4599981
 10
75743614.5400001
 20
23392032.2919982
 10
75743671.396
 20
23392051.4679981
 10
75743728.7800001
 20
23392068.9879983
 10
75743748.0040001
 20
23392080.0039982
 10
75744036.0040001
 20
23391060.0039982
  0
LWPOLYLINE
  5
20061
  8
0
100
AcDbEntity
100
AcDbPolyline
 70
0
 90
20
 62
7
370
0
 10
75744420.5560001
 20
23399903.9679981
 10
75743170.1920001
 20
23399387.2959981
 10
75743076.004
 20
23399628.0039982
 10
75743160.0040001
 20
23399676.0039981
 10
75742907.1280001
 20
23400071.4399982
 10
75744097.24
 20
23400636.5919982
 10
75744106.1560001
 20
23400617.7159981
 10
75744131.5840001
 20
23400563.3679981
 10
75744156.7960001
 20
23400508.9239981
 10
75744181.8040001
 20
23400454.3839981
 10
75744206.608
 20
23400399.7479981
 10
75744231.1960001
 20
23400345.0279982
 10
75744255.604
 20
23400290.1999982
 10
75744279.772
 20
23400235.2999981
 10
75744303.772
 20
23400180.2919982
 10
75744327.5440001
 20
23400125.2119982
 10
75744351.1120001
 20
23400070.0239981
 10
75744374.464
 20
23400014.7639982
 10
75744397.6120001
 20
23399959.4079982
 10
75744420.5560001
 20
23399903.9679981
  0
LWPOLYLINE
  5
20062
  8
0
100
AcDbEntity
100
AcDbPolyline
 70
0
 90
20
 62
7
370
0
 10
75743170.1920001
 20
23399387.2959981
 10
75744420.5560001
 20
23399903.9679981
 10
75744443.2840001
 20
23399848.4439982
 10
75744465.8080001
 20
23399792.8239983
 10
75744488.1280001
 20
23399737.1319981
 10
75744510.232
 20
23399681.3559981
 10
75744532.1320001
 20
23399625.4959982
 10
75744553.816
 20
23399569.5519982
 10
75744575.2840001
 20
23399513.5239981
 10
75744596.548
 20
23399457.4119981
 10
75744617.5960001
 20
23399401.2279981
 10
75744638.44
 20
23399344.9599981
 10
75744659.0680001
 20
23399288.6199981
 10
75744679.48
 20
23399232.2079982
 10
75744699.688
 20
23399175.7119982
 10
75744719.6800001
 20
23399119.131998
 10
75744725.6680001
 20
23399101.9839983
 10
75743432.4160001
 20
23398679.0439982
 10
75743400.0040001
 20
23398800.0039982
 10
75743170.1920001
 20
23399387.2959981
  0
LWPOLYLINE
  5
20063
  8
0
100
AcDbEntity
100
AcDbPolyline
 70
0
 90
24
 62
7
370
0
 10
75744396.0040001
 20
23394852.0039982
 10
75744336.0040001
 20
23393880.0039983
 10
75743844.5560001
 20
23393804.3919981
 10
75743219.548
 20
23395249.1799982
 10
75743231.536
 20
23395253.8119981
 10
75743287.6240001
 20
23395275.1359982
 10
75743343.8200001
 20
23395296.1479981
 10
75743400.1360002
 20
23395316.8599982
 10
75743456.5600001
 20
23395337.2599981
 10
75743513.104
 20
23395357.3479983
 10
75743569.744
 20
23395377.1239983
 10
75743626.492
 20
23395396.5999981
 10
75743683.3600001
 20
23395415.7639983
 10
75743740.312
 20
23395434.6039982
 10
75743797.384
 20
23395453.1439983
 10
75743854.552
 20
23395471.3599982
 10
75743911.816
 20
23395489.2759983
 10
75743969.176
 20
23395506.8799982
 10
75744026.632
 20
23395524.1599981
 10
75744084.1840001
 20
23395541.1279982
 10
75744141.8200001
 20
23395557.7839981
 10
75744199.552
 20
23395574.115998
 10
75744239.6680001
 20
23395585.2399981
 10
75744396.0040001
 20
23394852.0039982
  0
LWPOLYLINE
  5
20064
  8
0
100
AcDbEntity
100
AcDbPolyline
 70
0
 90
18
 62
7
370
0
 10
75744782.968
 20
23390951.5359981
 10
75744780.1000001
 20
23390933.2959981
 10
75744771.1960001
 20
23390873.9679981
 10
75744762.7120001
 20
23390814.5679982
 10
75744754.648
 20
23390755.1079981
 10
75744746.9920001
 20
23390695.5999981
 10
75744739.756
 20
23390636.0439982
 10
75744732.9280001
 20
23390576.4279983
 10
75744726.5320001
 20
23390516.7759983
 10
75744720.5440001
 20
23390457.0759981
 10
75744714.9760001
 20
23390397.327998
 10
75744709.8280001
 20
23390337.5559982
 10
75744705.0880001
 20
23390277.7359982
 10
75744696.0040001
 20
23390208.0039982
 10
75743220.0040001
 20
23390316.0039982
 10
75743484.0040001
 20
23390664.0039983
 10
75744036.0040001
 20
23391060.0039982
 10
75744782.968
 20
23390951.5359981
  0
LWPOLYLINE
  5
20065
  8
0
100
AcDbEntity
100
AcDbPolyline
 70
0
 90
18
 62
7
370
0
 10
75744288.0160001
 20
23392749.5439982
 10
75744261.3760001
 20
23392749.4599982
 10
75744201.3880001
 20
23392747.9239981
 10
75744141.4600001
 20
23392745.0319983
 10
75744081.616
 20
23392740.7959981
 10
75744021.868
 20
23392735.2159982
 10
75743962.2760002
 20
23392728.2919982
 10
75743902.8520001
 20
23392720.023998
 10
75743843.62
 20
23392710.4359982
 10
75743784.6280001
 20
23392699.5159982
 10
75743725.8760001
 20
23392687.2639982
 10
75743667.4480001
 20
23392673.7039981
 10
75743609.3200001
 20
23392658.8239982
 10
75743567.092
 20
23392647.0039981
 10
75743244.0040001
 20
23393712.0039982
 10
75743844.5560001
 20
23393804.3919981
 10
75744336.0040001
 20
23393880.0039983
 10
75744288.0160001
 20
23392749.5439982
  0
LWPOLYLINE
  5
20066
  8
0
100
AcDbEntity
100
AcDbPolyline
 70
0
 90
17
 62
7
370
0
 10
75744682.3480001
 20
23389464.0039981
 10
75744682.84
 20
23389438.3719981
 10
75744684.0040001
 20
23389392.0039981
 10
75744685.8040002
 20
23389332.0279982
 10
75744687.9760001
 20
23389272.075998
 10
75744690.5320001
 20
23389212.1239982
 10
75744693.4720002
 20
23389152.1959982
 10
75744696.7840001
 20
23389092.2919982
 10
75744700.468
 20
23389032.3879982
 10
75744704.536
 20
23388972.5439983
 10
75744708.9880001
 20
23388912.7119982
 10
75744713.8
 20
23388852.9039981
 10
75744719.008
 20
23388793.1199981
 10
75744724.5880001
 20
23388733.3839981
 10
75743451.4000002
 20
23388600.3639982
 10
75743328.0040001
 20
23389464.2439981
 10
75744682.3480001
 20
23389464.0039981
  0
LWPOLYLINE
  5
20067
  8
0
100
AcDbEntity
100
AcDbPolyline
 70
0
 90
20
 62
7
370
0
 10
75744984.004
 20
23398308.0039982
 10
75743625.2680001
 20
23397959.2719981
 10
75743616.0040001
 20
23398008.0039982
 10
75743432.4160001
 20
23398679.0439982
 10
75744725.6680001
 20
23399101.9839983
 10
75744739.4560002
 20
23399062.4919982
 10
75744759.0160001
 20
23399005.7679981
 10
75744778.372
 20
23398948.9719982
 10
75744797.5120002
 20
23398892.1039981
 10
75744816.4360001
 20
23398835.1759981
 10
75744835.144
 20
23398778.1639982
 10
75744853.6360002
 20
23398721.0799981
 10
75744871.924
 20
23398663.9359982
 10
75744889.9840002
 20
23398606.7319981
 10
75744907.828
 20
23398549.4319982
 10
75744925.4680001
 20
23398492.0839982
 10
75744942.8680001
 20
23398434.6759981
 10
75744960.0880001
 20
23398377.1839981
 10
75744977.0680002
 20
23398319.6319981
 10
75744984.004
 20
23398308.0039982
  0
LWPOLYLINE
  5
20068
  8
0
100
AcDbEntity
100
AcDbPolyline
 70
0
 90
589
 62
7
370
0
 10
75749901.1000001
 20
23415179.883998
 10
75749898.976
 20
23415119.9319981
 10
75749897.1400001
 20
23415059.9559982
 10
75749895.58
 20
23414999.9799981
 10
75749894.2960001
 20
23414939.9919982
 10
75749893.288
 20
23414879.991998
 10
75749892.5440001
 20
23414820.0039982
 10
75749892.088
 20
23414760.0039982
 10
75749891.908
 20
23414700.0039982
 10
75749892.0040001
 20
23414640.0039981
 10
75749888.8360001
 20
23414583.1239981
 10
75749873.5000001
 20
23414525.2239982
 10
75749846.5120002
 20
23414471.7639982
 10
75749809.036
 20
23414425.0479981
 10
75749762.704
 20
23414387.0919982
 10
75749709.5200001
 20
23414359.5639981
 10
75749651.788
 20
23414343.6399981
 10
75749592.0040001
 20
23414340.0039982
 10
75749556.8920001
 20
23414339.6199981
 10
75749496.8920001
 20
23414339.3319982
 10
75749436.8920001
 20
23414339.5119982
 10
75749376.892
 20
23414340.1479981
 10
75749316.9040001
 20
23414341.2639982
 10
75749256.9280002
 20
23414342.8239982
 10
75749196.9640001
 20
23414344.8639982
 10
75749137.0120001
 20
23414347.3599982
 10
75749077.0840001
 20
23414350.3359982
 10
75749017.1800001
 20
23414353.755998
 10
75748957.3120001
 20
23414357.6559982
 10
75748897.468
 20
23414362.0119982
 10
75748837.66
 20
23414366.8239981
 10
75748777.9000001
 20
23414372.1159981
 10
75748718.176
 20
23414377.8519981
 10
75748658.5000001
 20
23414384.0679982
 10
75748598.872
 20
23414390.7399982
 10
75748539.2920001
 20
23414397.8679981
 10
75748488.4600001
 20
23414404.3479983
 10
75748479.7780001
 20
23414405.5149982
 10
75748420.3240001
 20
23414413.5159982
 10
75748360.924
 20
23414422.0359982
 10
75748301.5960002
 20
23414430.9999982
 10
75748242.3520001
 20
23414440.4439982
 10
75748183.1680001
 20
23414450.3319982
 10
75748124.0680002
 20
23414460.6759982
 10
75748065.052
 20
23414471.4879982
 10
75748006.12
 20
23414482.7559981
 10
75747947.272
 20
23414494.4799981
 10
75747888.52
 20
23414506.647998
 10
75747829.8640001
 20
23414519.2839981
 10
75747771.316
 20
23414532.3639982
 10
75747712.8640001
 20
23414545.9119981
 10
75747654.5200001
 20
23414559.8919982
 10
75747596.272
 20
23414574.3399981
 10
75747538.1560001
 20
23414589.2319981
 10
75747480.148
 20
23414604.5799981
 10
75747422.272
 20
23414620.3599983
 10
75747364.5040001
 20
23414636.6079981
 10
75747306.8680001
 20
23414653.2879982
 10
75747249.3760001
 20
23414670.4239982
 10
75747191.9920001
 20
23414688.0039981
 10
75747145.996
 20
23414697.939998
 10
75745857.4840002
 20
23414976.3279982
 10
75745248.004
 20
23415108.0039982
 10
75745197.6520002
 20
23415117.2199983
 10
75745137.868
 20
23415121.9239981
 10
75745077.9280002
 20
23415119.991998
 10
75745018.564
 20
23415111.4479981
 10
75744960.52
 20
23415096.4119981
 10
75744904.48
 20
23415075.051998
 10
75744851.1520002
 20
23415047.6199981
 10
75744801.1840001
 20
23415014.4759982
 10
75744755.1640001
 20
23414976.0159982
 10
75744713.6800002
 20
23414932.7079982
 10
75744677.2360001
 20
23414885.0919981
 10
75744646.2760001
 20
23414833.7199982
 10
75744621.1720001
 20
23414779.2639981
 10
75744607.1320001
 20
23414737.0359981
 10
75744602.2480002
 20
23414722.3599982
 10
75744589.7200002
 20
23414663.7159981
 10
75744583.7440001
 20
23414604.0399982
 10
75744584.3920001
 20
23414544.0759982
 10
75744591.6640002
 20
23414484.5439982
 10
75744605.464
 20
23414426.1879981
 10
75744625.6360002
 20
23414369.7159981
 10
75744651.9160002
 20
23414315.799998
 10
75744683.9920001
 20
23414265.1479981
 10
75744721.4560001
 20
23414218.3239982
 10
75744763.8760002
 20
23414175.9159983
 10
75744810.712
 20
23414138.4519982
 10
75744861.4000002
 20
23414106.4239981
 10
75744915.316
 20
23414080.1679983
 10
75744971.8
 20
23414060.0319981
 10
75745030.1680001
 20
23414046.2559982
 10
75745089.7000001
 20
23414039.0079981
 10
75745149.6640001
 20
23414038.3839981
 10
75745209.3520001
 20
23414044.3839981
 10
75745267.9720001
 20
23414056.9359982
 10
75745324.8640001
 20
23414075.8959982
 10
75745379.3200001
 20
23414101.023998
 10
75745402.2760002
 20
23414114.8839981
 10
75745430.6680001
 20
23414132.0079981
 10
75745478.272
 20
23414168.4759982
 10
75745521.5680002
 20
23414209.9719983
 10
75745560.0040001
 20
23414256.0039983
 10
75745586.02
 20
23414299.9479981
 10
75745628.9080001
 20
23414341.6119982
 10
75745681.8040002
 20
23414369.4759982
 10
75745740.4360001
 20
23414381.2599981
 10
75745800.0040001
 20
23414376.0039982
 10
75747025.9840001
 20
23414121.5559983
 10
75747072.0040001
 20
23414112.0039981
 10
75747121.3000001
 20
23414096.4399981
 10
75747178.648
 20
23414078.7759982
 10
75747236.116
 20
23414061.5319981
 10
75747293.704
 20
23414044.7199982
 10
75747351.4240001
 20
23414028.3279982
 10
75747409.2640001
 20
23414012.3559981
 10
75747467.2120001
 20
23413996.8279982
 10
75747525.2800001
 20
23413981.7199982
 10
75747583.4560002
 20
23413967.0439983
 10
75747641.7400001
 20
23413952.7879981
 10
75747700.132
 20
23413938.9759982
 10
75747758.62
 20
23413925.5959982
 10
75747817.204
 20
23413912.6479981
 10
75747875.884
 20
23413900.119998
 10
75747934.6600001
 20
23413888.0479981
 10
75747993.508
 20
23413876.3959982
 10
75748052.452
 20
23413865.1759981
 10
75748111.48
 20
23413854.3999982
 10
75748170.58
 20
23413844.0679982
 10
75748229.7640001
 20
23413834.1679982
 10
75748289.008
 20
23413824.6999982
 10
75748348.3240001
 20
23413815.6759982
 10
75748407.7120001
 20
23413807.0839982
 10
75748467.148
 20
23413798.9359981
 10
75748526.656
 20
23413791.2199982
 10
75748586.2120001
 20
23413783.9599981
 10
75748645.816
 20
23413777.1319982
 10
75748705.48
 20
23413770.7359983
 10
75748765.1800001
 20
23413764.7959982
 10
75748824.9280001
 20
23413759.2879981
 10
75748884.7120001
 20
23413754.2239982
 10
75748944.5320001
 20
23413749.6039982
 10
75749004.3880001
 20
23413745.4279983
 10
75749064.2800001
 20
23413741.6839981
 10
75749124.1840001
 20
23413738.3959981
 10
75749184.1240001
 20
23413735.5279982
 10
75749244.076
 20
23413733.1399982
 10
75749304.0400002
 20
23413731.1599981
 10
75749364.0160002
 20
23413729.6479981
 10
75749423.9920001
 20
23413728.5799981
 10
75749484.004
 20
23413727.9439982
 10
75749544.0040001
 20
23413727.7519983
 10
75749604.004
 20
23413728.0039982
 10
75749663.464
 20
23413720.7199983
 10
75749720.3920001
 20
23413702.0599981
 10
75749772.6400001
 20
23413672.7559981
 10
75749818.2280001
 20
23413633.8879983
 10
75749855.44
 20
23413586.9439982
 10
75749882.872
 20
23413533.6879981
 10
75749899.48
 20
23413476.1359982
 10
75749904.004
 20
23413440.0039982
 10
75749904.9880001
 20
23413380.0159982
 10
75749905.9960001
 20
23413320.0159982
 10
75749907.052
 20
23413260.0279982
 10
75749908.132
 20
23413200.0399982
 10
75749909.2480001
 20
23413140.0639981
 10
75749910.4000002
 20
23413080.0639981
 10
75749911.588
 20
23413020.0759981
 10
75749912.812
 20
23412960.0759982
 10
75749914.0600001
 20
23412900.0999982
 10
75749915.3320001
 20
23412840.1119982
 10
75749916.676
 20
23412780.1239983
 10
75749918.0320001
 20
23412720.1479981
 10
75749919.424
 20
23412660.1599982
 10
75749920.84
 20
23412600.1719982
 10
75749922.3040002
 20
23412540.195998
 10
75749923.8040001
 20
23412480.2079981
 10
75749925.328
 20
23412420.231998
 10
75749926.8880001
 20
23412360.2559981
 10
75749928.4840002
 20
23412300.2679982
 10
75749930.1160001
 20
23412240.2919983
 10
75749931.784
 20
23412180.315998
 10
75749933.4760001
 20
23412120.3399982
 10
75749935.216
 20
23412060.3639982
 10
75749936.98
 20
23412000.3879982
 10
75749938.7800001
 20
23411940.4239982
 10
75749940.6160001
 20
23411880.4479981
 10
75749942.4880001
 20
23411820.4719983
 10
75749944.3960001
 20
23411760.5079981
 10
75749946.3400001
 20
23411700.5439982
 10
75749948.3080001
 20
23411640.5679983
 10
75749950.312
 20
23411580.6039982
 10
75749952.3520001
 20
23411520.6399983
 10
75749954.4280002
 20
23411460.6759981
 10
75749956.5400001
 20
23411400.7119981
 10
75749958.688
 20
23411340.7479983
 10
75749960.8600001
 20
23411280.7959983
 10
75749963.08
 20
23411220.8319983
 10
75749965.3240001
 20
23411160.8679981
 10
75749967.604
 20
23411100.9159982
 10
75749969.9200001
 20
23411040.9639981
 10
75749972.272
 20
23410981.0119982
 10
75749974.6600001
 20
23410921.0599982
 10
75749977.0720001
 20
23410861.1079981
 10
75749979.52
 20
23410801.1559982
 10
75749982.0160001
 20
23410741.2039981
 10
75749984.524
 20
23410681.2639981
 10
75749987.08
 20
23410621.311998
 10
75749989.6720001
 20
23410561.3719981
 10
75749992.3
 20
23410501.4199982
 10
75749994.952
 20
23410441.4799981
 10
75749997.6520001
 20
23410381.5399983
 10
75750000.3760001
 20
23410321.6119983
 10
75750003.1360002
 20
23410261.6719982
 10
75750005.5120001
 20
23410210.7919983
 10
75750005.938
 20
23410201.7319981
 10
75750008.7520001
 20
23410141.8039982
 10
75750011.608
 20
23410081.8759982
 10
75750014.5120002
 20
23410021.9359982
 10
75750017.44
 20
23409962.007998
 10
75750020.4160002
 20
23409902.0799981
 10
75750023.4160001
 20
23409842.1639983
 10
75750026.44
 20
23409782.2359982
 10
75750029.5120002
 20
23409722.3199982
 10
75750032.608
 20
23409662.3919981
 10
75750035.7520001
 20
23409602.4639982
 10
75750038.9200001
 20
23409542.5599983
 10
75750042.1240001
 20
23409482.6439982
 10
75750045.3640001
 20
23409422.7399982
 10
75750048.6400001
 20
23409362.8239982
 10
75750051.94
 20
23409302.9199981
 10
75750055.288
 20
23409243.0039981
 10
75750058.6600001
 20
23409183.0999982
 10
75750062.0680001
 20
23409123.1959982
 10
75750065.5120002
 20
23409063.3039983
 10
75750068.992
 20
23409003.3999983
 10
75750072.004
 20
23408952.0039981
 10
75750068.9200001
 20
23408903.7399983
 10
75750054.6880001
 20
23408845.5519981
 10
75750029.464
 20
23408791.1919982
 10
75749994.2080002
 20
23408742.7719982
 10
75749950.2400001
 20
23408702.079998
 10
75749899.2400001
 20
23408670.6639982
 10
75749843.116
 20
23408649.6999982
 10
75749784.0040001
 20
23408640.0039982
 10
75748728.0040001
 20
23408592.0039982
 10
75748536.004
 20
23408568.0039981
 10
75748482.4600001
 20
23408595.0399983
 10
75748431.6280001
 20
23408626.8759982
 10
75748383.9280002
 20
23408663.2359982
 10
75748339.7560001
 20
23408703.8079982
 10
75748299.496
 20
23408748.2679982
 10
75748272.0160001
 20
23408784.0039982
 10
75748260.2680001
 20
23408842.8399981
 10
75748248.6400001
 20
23408901.7119982
 10
75748237.132
 20
23408960.5959983
 10
75748225.732
 20
23409019.5039983
 10
75748214.452
 20
23409078.4359982
 10
75748203.2800001
 20
23409137.3799982
 10
75748192.2280001
 20
23409196.3479982
 10
75748181.272
 20
23409255.3519981
 10
75748170.4480001
 20
23409314.3559981
 10
75748159.7200002
 20
23409373.3959981
 10
75748149.1240001
 20
23409432.4479981
 10
75748138.6240001
 20
23409491.5119982
 10
75748128.2440001
 20
23409550.6239982
 10
75748117.9840002
 20
23409609.7359983
 10
75748107.8200001
 20
23409668.8599982
 10
75748097.788
 20
23409728.0199981
 10
75748087.8520001
 20
23409787.1919982
 10
75748078.0360001
 20
23409846.3879983
 10
75748077.5680001
 20
23409849.2919982
 10
75748068.34
 20
23409905.5959982
 10
75748058.7520001
 20
23409964.8279982
 10
75748049.284
 20
23410024.0719982
 10
75748039.924
 20
23410083.3399981
 10
75748030.672
 20
23410142.6199981
 10
75748021.5400001
 20
23410201.9239981
 10
75748022.968
 20
23410271.8719981
 10
75748035.8320001
 20
23410330.4079982
 10
75748058.26
 20
23410385.9559982
 10
75748089.6040001
 20
23410437.0399982
 10
75748129.0120002
 20
23410482.1959982
 10
75748164.0040001
 20
23410512.0039982
 10
75748209.5440001
 20
23410551.0159982
 10
75748250.524
 20
23410594.8039984
 10
75748286.4400001
 20
23410642.8279982
 10
75748316.8600002
 20
23410694.5119983
 10
75748341.424
 20
23410749.2319981
 10
75748359.8200001
 20
23410806.2919983
 10
75748371.844
 20
23410865.0559982
 10
75748377.328
 20
23410924.7679981
 10
75748376.2240001
 20
23410984.7319981
 10
75748368.532
 20
23411044.2039981
 10
75748354.3480001
 20
23411102.4759982
 10
75748333.8520001
 20
23411158.8279981
 10
75748307.2960001
 20
23411212.5999981
 10
75748274.968
 20
23411263.1199982
 10
75748237.312
 20
23411309.7759983
 10
75748194.7480002
 20
23411352.0279983
 10
75748147.7920001
 20
23411389.3359983
 10
75748097.0200001
 20
23411421.255998
 10
75748043.0560001
 20
23411447.4039982
 10
75747986.548
 20
23411467.4679981
 10
75747928.1680001
 20
23411481.1959982
 10
75747879.0640001
 20
23411487.2559982
 10
75747808.6720001
 20
23411489.0799981
 10
75747748.996
 20
23411483.1399982
 10
75747690.34
 20
23411470.6719981
 10
75747633.4000001
 20
23411451.8319983
 10
75747578.884
 20
23411426.8479983
 10
75747527.44
 20
23411396.0319981
 10
75747479.6920002
 20
23411359.743998
 10
75747436.216
 20
23411318.4399981
 10
75747397.552
 20
23411272.5999982
 10
75747364.1560001
 20
23411222.7879981
 10
75747336.4360001
 20
23411169.6039982
 10
75747314.7280001
 20
23411113.7199982
 10
75747299.2960001
 20
23411055.759998
 10
75747290.3200001
 20
23410996.4559983
 10
75747287.9200001
 20
23410936.5279982
 10
75747382.8400001
 20
23410357.7799982
 10
75747576.0040001
 20
23409180.0039981
 10
75747559.6240001
 20
23409140.6199981
 10
75747552.9880001
 20
23409124.6119981
 10
75747533.6680001
 20
23409067.8159981
 10
75747518.1280001
 20
23409009.8679982
 10
75747506.4520001
 20
23408951.0319981
 10
75747498.6640001
 20
23408891.5479981
 10
75747494.824
 20
23408831.6799981
 10
75747494.9320001
 20
23408771.6919983
 10
75747498.9880001
 20
23408711.8359982
 10
75747506.98
 20
23408652.3879982
 10
75747518.8719999
 20
23408593.5759981
 10
75747534.6160001
 20
23408535.6999981
 10
75747554.1400001
 20
23408478.9759981
 10
75747577.3480001
 20
23408423.6679982
 10
75747604.1680001
 20
23408369.9919981
 10
75747634.4560001
 20
23408318.1999981
 10
75747668.08
 20
23408268.5439982
 10
75747704.9200001
 20
23408221.1919983
 10
75747744.7840001
 20
23408176.3719981
 10
75747787.5280001
 20
23408134.2759982
 10
75747832.9480001
 20
23408095.0719982
 10
75747880.8520001
 20
23408058.9759982
 10
75747931.024
 20
23408026.0959983
 10
75747978.976
 20
23407999.0239981
 10
75748037.3200001
 20
23407970.5959981
 10
75748092.9880001
 20
23407948.2279981
 10
75748150.0000001
 20
23407929.5679982
 10
75748208.1160001
 20
23407914.6999982
 10
75748267.0840001
 20
23407903.6959982
 10
75748326.6520001
 20
23407896.6039982
 10
75748386.5560001
 20
23407893.447998
 10
75748446.5440001
 20
23407894.2519981
 10
75748506.34
 20
23407899.0039981
 10
75748565.704
 20
23407907.6799983
 10
75748624.3600002
 20
23407920.2559981
 10
75748682.0560001
 20
23407936.6599981
 10
75748704.004
 20
23407944.0039981
 10
75748727.9440001
 20
23407945.5999981
 10
75749064.0040001
 20
23407968.0039982
 10
75750480.0040001
 20
23408064.0039982
 10
75750551.4280001
 20
23408066.9559983
 10
75751644.0040001
 20
23408112.0039983
 10
75751703.9440001
 20
23408114.5719981
 10
75751763.9080001
 20
23408116.7799982
 10
75751823.884
 20
23408118.6279981
 10
75751883.8600001
 20
23408120.1039982
 10
75751943.8480002
 20
23408121.231998
 10
75752003.8480001
 20
23408121.9759982
 10
75752063.8480001
 20
23408122.3839981
 10
75752123.8480001
 20
23408122.4199982
 10
75752183.8480002
 20
23408122.0959982
 10
75752243.8360001
 20
23408121.4119981
 10
75752303.8360001
 20
23408120.3679981
 10
75752363.812
 20
23408118.9519981
 10
75752423.788
 20
23408117.1879982
 10
75752436.16
 20
23408116.7559982
 10
75752484.0040001
 20
23406876.0039982
 10
75750600.9160002
 20
23406786.3279981
 10
75748956.0040001
 20
23406708.0039982
 10
75748752.0040001
 20
23406876.0039981
 10
75745991.872
 20
23406408.7719982
 10
75744924.0160001
 20
23406228.0039982
 10
75744782.5600001
 20
23406816.9519981
 10
75744382.2640001
 20
23408483.5839983
 10
75744264.0040001
 20
23408976.0039982
 10
75744552.0160001
 20
23409156.0039982
 10
75744393.3400001
 20
23409779.3199982
 10
75743880.0040001
 20
23411796.0039982
 10
75743865.1120001
 20
23411854.1199981
 10
75743850.856
 20
23411912.3919982
 10
75743837.2360001
 20
23411970.8439981
 10
75743824.2520001
 20
23412029.4159983
 10
75743811.9280002
 20
23412088.1439982
 10
75743800.2520001
 20
23412146.9919981
 10
75743789.2120001
 20
23412205.9719982
 10
75743778.8200001
 20
23412265.0599981
 10
75743769.076
 20
23412324.2679981
 10
75743759.98
 20
23412383.5719982
 10
75743751.5440001
 20
23412442.9719982
 10
75743746.7200002
 20
23412479.8359981
 10
75743743.756
 20
23412502.4559982
 10
75743736.6280001
 20
23412562.035998
 10
75743730.148
 20
23412621.6879982
 10
75743724.3040001
 20
23412681.3999983
 10
75743719.1440001
 20
23412741.1839981
 10
75743714.632
 20
23412801.0159982
 10
75743710.7800001
 20
23412860.8839981
 10
75743707.5760001
 20
23412920.7999981
 10
75743705.0320001
 20
23412980.7519982
 10
75743703.148
 20
23413040.7159982
 10
75743701.9240001
 20
23413100.703998
 10
75743701.3600001
 20
23413160.7039981
 10
75743701.4440001
 20
23413220.7039981
 10
75743702.2
 20
23413280.6919983
 10
75743703.604
 20
23413340.6799982
 10
75743705.6680001
 20
23413400.6439981
 10
75743707.048
 20
23413431.0999982
 10
75743708.392
 20
23413460.5839983
 10
75743711.7760002
 20
23413520.4879982
 10
75743715.8200001
 20
23413580.343998
 10
75743720.5120002
 20
23413640.1639983
 10
75743725.8640001
 20
23413699.9239981
 10
75743731.8640001
 20
23413759.6239983
 10
75743738.524
 20
23413819.2519982
 10
75743745.844
 20
23413878.8199982
 10
75743753.812
 20
23413938.2679981
 10
75743762.4280002
 20
23413997.6439981
 10
75743771.704
 20
23414056.9239981
 10
75743781.6160001
 20
23414116.107998
 10
75743792.2
 20
23414175.1479982
 10
75743803.408
 20
23414234.1039981
 10
75743815.2760002
 20
23414292.9159982
 10
75743827.7800001
 20
23414351.6079981
 10
75743840.9320001
 20
23414410.1439981
 10
75743854.732
 20
23414468.5359981
 10
75743869.1560001
 20
23414526.7719981
 10
75743884.2280001
 20
23414584.8519983
 10
75743899.936
 20
23414642.7519982
 10
75743916.2800001
 20
23414700.4839982
 10
75743933.26
 20
23414758.035998
 10
75743950.8640001
 20
23414815.3959982
 10
75743969.092
 20
23414872.5519981
 10
75743987.9560001
 20
23414929.5159981
 10
75744007.4320001
 20
23414986.2639983
 10
75744027.5440001
 20
23415042.7959982
 10
75744048.2680001
 20
23415099.0999981
 10
75744069.6040001
 20
23415155.175998
 10
75744084.0040001
 20
23415192.0039981
 10
75744103.816
 20
23415248.6319981
 10
75744112.816
 20
23415274.3119981
 10
75744123.6640002
 20
23415305.2599981
 10
75744143.5600001
 20
23415361.8639981
 10
75744163.4800001
 20
23415418.4679981
 10
75744183.436
 20
23415475.0479982
 10
75744203.4160001
 20
23415531.6159982
 10
75744223.4560001
 20
23415588.1719982
 10
75744243.52
 20
23415644.715998
 10
75744263.62
 20
23415701.2359982
 10
75744283.7680001
 20
23415757.7679982
 10
75744303.94
 20
23415814.2759982
 10
75744324.148
 20
23415870.7719981
 10
75744344.3920001
 20
23415927.2559981
 10
75744364.6720001
 20
23415983.7279981
 10
75744384.9880001
 20
23416040.1759981
 10
75744405.3400001
 20
23416096.6239982
 10
75744425.7280001
 20
23416153.0479981
 10
75744446.1520001
 20
23416209.4719982
 10
75744466.6120001
 20
23416265.8719981
 10
75744487.108
 20
23416322.2599981
 10
75744507.6400001
 20
23416378.647998
 10
75744528.2080002
 20
23416435.0119983
 10
75744548.812
 20
23416491.3639981
 10
75744569.4520001
 20
23416547.6919983
 10
75744590.1280001
 20
23416604.0199981
 10
75744610.8280001
 20
23416660.3479983
 10
75744631.5760001
 20
23416716.6399982
 10
75744652.3600002
 20
23416772.9199982
 10
75744673.1800002
 20
23416829.1879981
 10
75744694.036
 20
23416885.4559983
 10
75744714.9160002
 20
23416941.6999981
 10
75744735.844
 20
23416997.9319983
 10
75744757.9600001
 20
23417057.6679982
 10
75744800.5600001
 20
23417043.0039981
 10
75744857.344
 20
23417023.6239983
 10
75744914.2000001
 20
23417004.4479981
 10
75744971.116
 20
23416985.4519983
 10
75745028.104
 20
23416966.6599981
 10
75745085.1400001
 20
23416948.0599983
 10
75745142.2360002
 20
23416929.6519982
 10
75745199.4160002
 20
23416911.4359982
 10
75745256.6440001
 20
23416893.4119981
 10
75745313.9320001
 20
23416875.579998
 10
75745371.2800001
 20
23416857.9399981
 10
75745428.688
 20
23416840.5039982
 10
75745486.1560001
 20
23416823.2479984
 10
75745524.0040001
 20
23416811.9919981
 10
75745581.3640001
 20
23416794.4119982
 10
75745638.784
 20
23416776.9999983
 10
75745696.2520001
 20
23416759.7319981
 10
75745753.7560001
 20
23416742.6439981
 10
75745811.3200001
 20
23416725.7119982
 10
75745868.9320001
 20
23416708.9479981
 10
75745926.5920001
 20
23416692.3519981
 10
75745984.3
 20
23416675.9119981
 10
75746042.0560001
 20
23416659.6519983
 10
75746099.8480001
 20
23416643.5479982
 10
75746157.7
 20
23416627.6119981
 10
75746186.368
 20
23416619.8119981
 10
75746215.5880001
 20
23416611.843998
 10
75746273.524
 20
23416596.2319981
 10
75746331.496
 20
23416580.7999981
 10
75746389.5280001
 20
23416565.523998
 10
75746447.5840001
 20
23416550.4159982
 10
75746505.7000001
 20
23416535.4759981
 10
75746563.84
 20
23416520.7039981
 10
75746622.052
 20
23416506.0999982
 10
75746680.288
 20
23416491.6519982
 10
75746738.5600001
 20
23416477.3839981
 10
75746796.8800001
 20
23416463.2719981
 10
75746855.2360001
 20
23416449.3399981
 10
75746913.6400001
 20
23416435.563998
 10
75746972.0680002
 20
23416421.9559983
 10
75747030.5440001
 20
23416408.5279982
 10
75747089.0680001
 20
23416395.2559982
 10
75747147.6280001
 20
23416382.1519983
 10
75747206.2
 20
23416369.2159981
 10
75747264.8320002
 20
23416356.4479981
 10
75747323.4880001
 20
23416343.8599982
 10
75747382.1920002
 20
23416331.4279983
 10
75747440.9200001
 20
23416319.1639982
 10
75747469.108
 20
23416313.3679981
 10
75747499.7080002
 20
23416307.0679982
 10
75747558.496
 20
23416295.1399983
 10
75747617.3320001
 20
23416283.3919982
 10
75747676.204
 20
23416271.7999982
 10
75747735.1120001
 20
23416260.3879982
 10
75747794.0440001
 20
23416249.1319981
 10
75747853.0120001
 20
23416238.0559982
 10
75747912.0160001
 20
23416227.1359981
 10
75747971.0440001
 20
23416216.3959981
 10
75748030.108
 20
23416205.8239982
 10
75748089.1960001
 20
23416195.4199981
 10
75748148.3080001
 20
23416185.1839982
 10
75748207.468
 20
23416175.1039982
 10
75748266.6400001
 20
23416165.215998
 10
75748325.8480002
 20
23416155.4959981
 10
75748385.08
 20
23416145.9439981
 10
75748444.3480001
 20
23416136.5479982
 10
75748503.6280001
 20
23416127.3319983
 10
75748562.9440002
 20
23416118.2839981
 10
75748622.2840001
 20
23416109.4039982
 10
75748669.5400001
 20
23416102.4679981
 10
75748681.648
 20
23416100.6919982
 10
75748741.036
 20
23416092.1599982
 10
75748800.4480001
 20
23416083.7839982
 10
75748859.884
 20
23416075.5879982
 10
75748919.344
 20
23416067.5599981
 10
75748978.828
 20
23416059.7119981
 10
75749038.3360001
 20
23416052.0199983
 10
75749097.868
 20
23416044.5079981
 10
75749157.412
 20
23416037.1639983
 10
75749216.9800001
 20
23416029.9879982
 10
75749276.5720001
 20
23416022.9799981
 10
75749336.1880001
 20
23416016.1519981
 10
75749395.816
 20
23416009.4799981
 10
75749455.4440001
 20
23416003.0119983
 10
75749515.12
 20
23415996.675998
 10
75749574.8080001
 20
23415990.5199981
 10
75749634.5080001
 20
23415984.5439981
 10
75749699.5960001
 20
23415977.9559983
 10
75749756.6560001
 20
23415959.7759982
 10
75749808.7480001
 20
23415930.2319981
 10
75749853.6520002
 20
23415890.5839982
 10
75749889.436
 20
23415842.5599981
 10
75749914.552
 20
23415788.1879981
 10
75749927.9440002
 20
23415729.8079982
 10
75749928.004
 20
23415660.0159982
 10
75749923.6120001
 20
23415599.2719981
 10
75749919.5680002
 20
23415539.4039983
 10
75749915.8000001
 20
23415479.5239981
 10
75749912.3080001
 20
23415419.6199981
 10
75749909.092
 20
23415359.7039981
 10
75749906.1520001
 20
23415299.7759983
 10
75749903.4880001
 20
23415239.8359981
 10
75749901.1000001
 20
23415179.883998
  0
LWPOLYLINE
  5
20069
  8
0
100
AcDbEntity
100
AcDbPolyline
 70
0
 90
129
 62
7
370
0
 10
75752832.0040001
 20
23410320.0039982
 10
75752867.812
 20
23408697.2079983
 10
75752847.592
 20
23408698.5879981
 10
75752787.7120001
 20
23408702.3799981
 10
75752727.8200001
 20
23408705.8479982
 10
75752667.9040001
 20
23408709.0039982
 10
75752607.964
 20
23408711.8239983
 10
75752548.024
 20
23408714.3319982
 10
75752488.0720001
 20
23408716.5159982
 10
75752428.0840001
 20
23408718.3759982
 10
75752368.108
 20
23408719.9239982
 10
75752308.12
 20
23408721.1239982
 10
75752248.1320001
 20
23408722.0239981
 10
75752188.132
 20
23408722.5879981
 10
75752128.132
 20
23408722.8399982
 10
75752068.132
 20
23408722.7679982
 10
75752008.1320001
 20
23408722.3719981
 10
75751948.1320001
 20
23408721.6519982
 10
75751888.1440001
 20
23408720.6199981
 10
75751828.1560001
 20
23408719.2399981
 10
75751768.1680001
 20
23408717.5599981
 10
75751708.2160001
 20
23408715.5559982
 10
75751648.2640001
 20
23408713.215998
 10
75751620.0160001
 20
23408712.0039982
 10
75751104.0040001
 20
23408688.0039982
 10
75751043.6440001
 20
23408690.8239983
 10
75750985.4800001
 20
23408705.1639983
 10
75750931.1800001
 20
23408730.4719983
 10
75750882.7840001
 20
23408765.7759982
 10
75750842.1280001
 20
23408809.7679981
 10
75750810.7120001
 20
23408860.7799981
 10
75750789.7480001
 20
23408916.8919981
 10
75750780.004
 20
23408976.0039982
 10
75750778.1680001
 20
23409014.5959982
 10
75750775.288
 20
23409074.5359982
 10
75750772.4560001
 20
23409134.4639981
 10
75750769.648
 20
23409194.3919981
 10
75750766.8640001
 20
23409254.3319982
 10
75750764.1160001
 20
23409314.2719981
 10
75750761.3920001
 20
23409374.2119982
 10
75750758.6680001
 20
23409434.1399982
 10
75750755.9800001
 20
23409494.079998
 10
75750753.328
 20
23409554.0319982
 10
75750750.6880001
 20
23409613.9719982
 10
75750748.0840002
 20
23409673.911998
 10
75750745.4920001
 20
23409733.8519982
 10
75750742.936
 20
23409793.7919982
 10
75750740.4040002
 20
23409853.7439981
 10
75750737.896
 20
23409913.6959982
 10
75750735.412
 20
23409973.6479981
 10
75750732.9520001
 20
23410033.5999982
 10
75750730.5160001
 20
23410093.5399982
 10
75750728.1040001
 20
23410153.4919982
 10
75750725.716
 20
23410213.4439982
 10
75750724.816
 20
23410236.1959982
 10
75750723.3520001
 20
23410273.4079982
 10
75750721.0120001
 20
23410333.3599983
 10
75750718.7080001
 20
23410393.3119981
 10
75750716.4280002
 20
23410453.2639981
 10
75750714.1600001
 20
23410513.2279981
 10
75750711.9280001
 20
23410573.1799983
 10
75750709.7200001
 20
23410633.1439981
 10
75750707.524
 20
23410693.107998
 10
75750705.3640001
 20
23410753.0599981
 10
75750703.228
 20
23410813.0239981
 10
75750701.1160001
 20
23410872.9879982
 10
75750699.0280001
 20
23410932.9519981
 10
75750696.964
 20
23410992.9159983
 10
75750694.9360001
 20
23411052.8799982
 10
75750692.9200001
 20
23411112.8319982
 10
75750690.9280001
 20
23411172.8199981
 10
75750688.9720002
 20
23411232.7839981
 10
75750687.0280001
 20
23411292.7479982
 10
75750685.12
 20
23411352.7239982
 10
75750683.2240002
 20
23411412.6879981
 10
75750681.352
 20
23411472.6639984
 10
75750679.5280002
 20
23411532.6399982
 10
75750677.7160001
 20
23411592.6039982
 10
75750675.9280002
 20
23411652.5679983
 10
75750674.536
 20
23411700.0879982
 10
75750674.1640002
 20
23411712.5559981
 10
75750672.424
 20
23411772.5319982
 10
75750670.7080001
 20
23411832.5079982
 10
75750669.0160001
 20
23411892.4719982
 10
75750667.3600002
 20
23411952.4599983
 10
75750665.716
 20
23412012.4359981
 10
75750664.0960002
 20
23412072.4119981
 10
75750662.5120002
 20
23412132.3759983
 10
75750660.9520001
 20
23412192.3759983
 10
75750659.4040001
 20
23412252.3519982
 10
75750657.8920001
 20
23412312.339998
 10
75750656.4040002
 20
23412372.3159981
 10
75750654.94
 20
23412432.3039982
 10
75750653.5000002
 20
23412492.2799982
 10
75750652.0840002
 20
23412552.2559981
 10
75750650.6920002
 20
23412612.2439981
 10
75750649.3240001
 20
23412672.2319981
 10
75750647.992
 20
23412732.2199983
 10
75750646.66
 20
23412792.2079982
 10
75750645.3760001
 20
23412852.1839981
 10
75750644.1040001
 20
23412912.1719983
 10
75750642.8680001
 20
23412972.1599981
 10
75750641.6440001
 20
23413032.1479981
 10
75750640.6960001
 20
23413080.0399983
 10
75750640.4560002
 20
23413092.1359983
 10
75750639.2920001
 20
23413152.1239982
 10
75750638.1520002
 20
23413212.1119982
 10
75750637.0360001
 20
23413272.1119982
 10
75750635.9440002
 20
23413332.0999982
 10
75750634.8880001
 20
23413392.0879982
 10
75750633.844
 20
23413452.0759981
 10
75750632.8120001
 20
23413512.0639982
 10
75750631.816
 20
23413572.0639982
 10
75750630.8680001
 20
23413632.051998
 10
75750629.908
 20
23413692.0399982
 10
75750628.9960001
 20
23413752.0399982
 10
75750628.0960001
 20
23413812.0279982
 10
75750627.232
 20
23413872.0279982
 10
75750626.3800001
 20
23413932.0159982
 10
75750625.564
 20
23413992.0159982
 10
75750624.7720001
 20
23414052.0039981
 10
75750624.0040001
 20
23414112.0039981
 10
75750621.3760001
 20
23414435.9799981
 10
75752399.9920001
 20
23414448.0039981
 10
75752413.3360001
 20
23413092.0159982
 10
75752426.44
 20
23411760.0279982
 10
75752436.004
 20
23410788.0039981
 10
75752820.1000001
 20
23410781.8119981
 10
75752832.0040001
 20
23410320.0039982
  0
LWPOLYLINE
  5
2006A
  8
0
100
AcDbEntity
100
AcDbPolyline
 70
0
 90
19
 62
7
370
0
 10
75745192.024
 20
23397507.7119981
 10
75743824.1920001
 20
23397216.8919982
 10
75743808.328
 20
23397276.0879981
 10
75743625.2680001
 20
23397959.2719981
 10
75744984.004
 20
23398308.0039982
 10
75744993.844
 20
23398262.0319982
 10
75745010.3920001
 20
23398204.3599983
 10
75745026.7240001
 20
23398146.6279982
 10
75745042.8520001
 20
23398088.8359982
 10
75745058.7520001
 20
23398030.995998
 10
75745074.424
 20
23397973.0719981
 10
75745089.8920001
 20
23397915.0879982
 10
75745105.1440001
 20
23397857.0679982
 10
75745120.1680001
 20
23397798.9759981
 10
75745134.976
 20
23397740.8359981
 10
75745149.5680002
 20
23397682.6359982
 10
75745163.9440002
 20
23397624.3759982
 10
75745178.092
 20
23397566.0679982
 10
75745192.024
 20
23397507.7119981
  0
LWPOLYLINE
  5
2006B
  8
0
100
AcDbEntity
100
AcDbPolyline
 70
0
 90
42
 62
7
370
0
 10
75744732.0040001
 20
23392104.0039982
 10
75744788.3800001
 20
23392083.7599981
 10
75744839.4640001
 20
23392052.4999982
 10
75744883.132
 20
23392011.5079981
 10
75744917.5600001
 20
23391962.4879982
 10
75744941.3200001
 20
23391907.5159982
 10
75744953.4160001
 20
23391848.8479983
 10
75744953.3320001
 20
23391788.9559983
 10
75744948.0040001
 20
23391756.0039981
 10
75744933.3520001
 20
23391697.8159981
 10
75744919.0960001
 20
23391639.5319982
 10
75744905.2600001
 20
23391581.1519983
 10
75744891.8200002
 20
23391522.6759981
 10
75744878.8000001
 20
23391464.1039981
 10
75744866.188
 20
23391405.4479982
 10
75744853.9840001
 20
23391346.7079983
 10
75744842.188
 20
23391287.8719981
 10
75744830.8120001
 20
23391228.9639981
 10
75744819.844
 20
23391169.9719983
 10
75744809.2840001
 20
23391110.9079981
 10
75744799.1440001
 20
23391051.7719981
 10
75744789.412
 20
23390992.5759981
 10
75744782.968
 20
23390951.5359981
 10
75744036.0040001
 20
23391060.0039982
 10
75743748.0040001
 20
23392080.0039982
 10
75743786.6440001
 20
23392084.8159981
 10
75743844.964
 20
23392098.9519982
 10
75743903.656
 20
23392111.3719981
 10
75743962.6960001
 20
23392122.0759982
 10
75744022.0120002
 20
23392131.0639981
 10
75744081.5680001
 20
23392138.2999981
 10
75744141.316
 20
23392143.8199981
 10
75744201.1960001
 20
23392147.5639982
 10
75744261.1600001
 20
23392149.5679982
 10
75744321.16
 20
23392149.8199982
 10
75744381.1360001
 20
23392148.3319983
 10
75744441.0640001
 20
23392145.079998
 10
75744500.8360001
 20
23392140.0879982
 10
75744560.452
 20
23392133.3559982
 10
75744619.852
 20
23392124.8839982
 10
75744678.9760001
 20
23392114.6839982
 10
75744732.0040001
 20
23392104.0039982
  0
LWPOLYLINE
  5
2006C
  8
0
100
AcDbEntity
100
AcDbPolyline
 70
0
 90
32
 62
7
370
0
 10
75745330.744
 20
23396862.5079982
 10
75745335.3040001
 20
23396811.0519981
 10
75745329.5680002
 20
23396751.4239982
 10
75745312.4560002
 20
23396694.0159982
 10
75745284.6280001
 20
23396640.9639982
 10
75745247.1280001
 20
23396594.2479982
 10
75745201.3360001
 20
23396555.6079981
 10
75745148.98
 20
23396526.507998
 10
75745092.004
 20
23396508.0039981
 10
75744804.0040001
 20
23396448.0039981
 10
75744624.0040001
 20
23396412.0039981
 10
75744447.0040001
 20
23396374.1439982
 10
75744388.2760001
 20
23396361.7839981
 10
75744329.644
 20
23396349.0519981
 10
75744271.108
 20
23396335.8999983
 10
75744212.6560001
 20
23396322.3519982
 10
75744154.3
 20
23396308.4079982
 10
75744096.0400002
 20
23396294.0679982
 10
75744072.9640001
 20
23396288.2359983
 10
75743824.1920001
 20
23397216.8919982
 10
75745192.024
 20
23397507.7119981
 10
75745205.7400001
 20
23397449.2959981
 10
75745219.228
 20
23397390.8319983
 10
75745232.5000001
 20
23397332.3199982
 10
75745245.5560001
 20
23397273.7599981
 10
75745258.384
 20
23397215.1519983
 10
75745270.996
 20
23397156.4959981
 10
75745283.3920001
 20
23397097.7799982
 10
75745295.5600001
 20
23397039.0279982
 10
75745307.5120002
 20
23396980.2279981
 10
75745319.2360001
 20
23396921.3919982
 10
75745330.744
 20
23396862.5079982
  0
LWPOLYLINE
  5
2006D
  8
0
100
AcDbEntity
100
AcDbPolyline
 70
0
 90
40
 62
7
370
0
 10
75745560.0040001
 20
23394708.0039981
 10
75744396.0040001
 20
23394852.0039982
 10
75744239.6680001
 20
23395585.2399981
 10
75744257.38
 20
23395590.1479981
 10
75744315.2800001
 20
23395605.8439981
 10
75744373.2760001
 20
23395621.2399982
 10
75744431.356
 20
23395636.2999982
 10
75744489.508
 20
23395651.0599982
 10
75744547.744
 20
23395665.4839982
 10
75744606.064
 20
23395679.6079981
 10
75744664.4560001
 20
23395693.4079982
 10
75744722.9200001
 20
23395706.8839981
 10
75744781.468
 20
23395720.0359982
 10
75744840.0760001
 20
23395732.8759982
 10
75744898.756
 20
23395745.3919981
 10
75744957.508
 20
23395757.5839983
 10
75745016.3200002
 20
23395769.4639981
 10
75745075.1920001
 20
23395781.007998
 10
75745134.1360001
 20
23395792.2279982
 10
75745176.0040001
 20
23395800.0039982
 10
75745240.552
 20
23395801.8399981
 10
75745299.5680001
 20
23395791.543998
 10
75745355.5000002
 20
23395770.0879982
 10
75745406.272
 20
23395738.2759982
 10
75745449.952
 20
23395697.283998
 10
75745484.9560001
 20
23395648.6839982
 10
75745509.952
 20
23395594.2399982
 10
75745524.0040001
 20
23395536.0039982
 10
75745548.0040001
 20
23395332.0039982
 10
75745550.0560001
 20
23395316.0439982
 10
75745556.968
 20
23395256.4399981
 10
75745562.6560001
 20
23395196.703998
 10
75745567.0840001
 20
23395136.8719981
 10
75745570.288
 20
23395076.9559982
 10
75745572.2680001
 20
23395016.9919981
 10
75745572.9760001
 20
23394957.0039981
 10
75745572.4720002
 20
23394897.0039982
 10
75745570.732
 20
23394837.0279982
 10
75745567.744
 20
23394777.0999981
 10
75745560.0040001
 20
23394708.0039981
  0
LWPOLYLINE
  5
2006E
  8
0
100
AcDbEntity
100
AcDbPolyline
 70
0
 90
33
 62
7
370
0
 10
75745381.3120001
 20
23393795.7159982
 10
75745331.9920001
 20
23393580.0039982
 10
75745329.436
 20
23393560.4559983
 10
75745320.6160001
 20
23393501.1039981
 10
75745310.3200001
 20
23393442.0039982
 10
75745298.5600001
 20
23393383.1799983
 10
75745285.3240001
 20
23393324.6439981
 10
75745270.648
 20
23393266.4679981
 10
75745254.52
 20
23393208.6879982
 10
75745236.94
 20
23393151.3159981
 10
75745217.9560001
 20
23393094.3999982
 10
75745197.5560001
 20
23393037.9759982
 10
75745175.7520001
 20
23392982.0799981
 10
75745152.5680001
 20
23392926.7479982
 10
75745128.0040001
 20
23392872.0039982
 10
75745105.9720002
 20
23392833.4119981
 10
75745067.8600001
 20
23392787.1879982
 10
75745021.468
 20
23392749.2919982
 10
75744968.5840001
 20
23392721.1519983
 10
75744911.2360002
 20
23392703.8479982
 10
75744851.608
 20
23392698.0639983
 10
75744792.004
 20
23392704.0039982
 10
75744739.3600001
 20
23392713.3279981
 10
75744680.092
 20
23392722.5439982
 10
75744620.5960002
 20
23392730.4159981
 10
75744560.9560001
 20
23392736.9559982
 10
75744501.184
 20
23392742.1519983
 10
75744441.3040002
 20
23392746.0039981
 10
75744381.3640001
 20
23392748.4999982
 10
75744321.3760001
 20
23392749.6519981
 10
75744288.0160001
 20
23392749.5439982
 10
75744336.0040001
 20
23393880.0039983
 10
75745381.3120001
 20
23393795.7159982
  0
LWPOLYLINE
  5
2006F
  8
0
100
AcDbEntity
100
AcDbPolyline
 70
0
 90
11
 62
7
370
0
 10
75745560.0040001
 20
23394708.0039981
 10
75745558.0840001
 20
23394657.5079981
 10
75745551.4000001
 20
23394597.8799981
 10
75745543.492
 20
23394538.4079983
 10
75745534.3600002
 20
23394479.1039981
 10
75745524.004
 20
23394420.0039981
 10
75745428.0040001
 20
23394000.0039981
 10
75745381.3120001
 20
23393795.7159982
 10
75744336.0040001
 20
23393880.0039983
 10
75744396.0040001
 20
23394852.0039982
 10
75745560.0040001
 20
23394708.0039981
  0
LWPOLYLINE
  5
20070
  8
0
100
AcDbEntity
100
AcDbPolyline
 70
0
 90
20
 62
7
370
0
 10
75747195.7840001
 20
23389775.8959981
 10
75747180.0040001
 20
23389200.0039981
 10
75747191.9920001
 20
23389104.0039982
 10
75745426.2760001
 20
23388983.871998
 10
75745425.2920002
 20
23388996.5679982
 10
75745421.0440001
 20
23389056.4359981
 10
75745417.1920001
 20
23389116.3039982
 10
75745413.7480002
 20
23389176.2079982
 10
75745410.7120001
 20
23389236.1359983
 10
75745408.0720001
 20
23389296.0759981
 10
75745405.8400001
 20
23389356.0279982
 10
75745403.908
 20
23389421.4879982
 10
75745403.1520002
 20
23389481.4759983
 10
75745402.7920001
 20
23389541.4759982
 10
75745402.8280001
 20
23389601.4759982
 10
75745403.2840001
 20
23389661.4759981
 10
75745404.148
 20
23389721.4759982
 10
75745405.4200001
 20
23389781.4519982
 10
75745404.0040001
 20
23389824.0039981
 10
75747195.7840001
 20
23389775.8959981
  0
LWPOLYLINE
  5
20071
  8
0
100
AcDbEntity
100
AcDbPolyline
 70
0
 90
20
 62
7
370
0
 10
75747242.6440001
 20
23390423.7159982
 10
75747204.004
 20
23390076.0039982
 10
75747195.7840001
 20
23389775.8959981
 10
75745404.0040001
 20
23389824.0039981
 10
75745407.1000001
 20
23389841.4399981
 10
75745409.188
 20
23389901.4039981
 10
75745411.6720001
 20
23389961.3439981
 10
75745414.576
 20
23390021.271998
 10
75745417.8760001
 20
23390081.1879982
 10
75745421.5960001
 20
23390141.0679982
 10
75745425.7120001
 20
23390200.9239981
 10
75745430.2360002
 20
23390260.7559981
 10
75745435.1680001
 20
23390320.551998
 10
75745440.52
 20
23390380.3119981
 10
75745446.256
 20
23390440.035998
 10
75745452.4000001
 20
23390499.7239981
 10
75745458.952
 20
23390559.3519981
 10
75745465.912
 20
23390618.9559982
 10
75745473.2800001
 20
23390678.5119982
 10
75747242.6440001
 20
23390423.7159982
  0
LWPOLYLINE
  5
20072
  8
0
100
AcDbEntity
100
AcDbPolyline
 70
0
 90
19
 62
7
370
0
 10
75747340.3960001
 20
23391094.8519981
 10
75747300.004
 20
23390940.0039981
 10
75747242.6440001
 20
23390423.7159982
 10
75745473.2800001
 20
23390678.5119982
 10
75745481.0560001
 20
23390737.995998
 10
75745489.216
 20
23390797.4439982
 10
75745497.796
 20
23390856.8319982
 10
75745506.772
 20
23390916.1479981
 10
75745516.156
 20
23390975.4159983
 10
75745525.936
 20
23391034.6119982
 10
75745536.1240002
 20
23391093.7359982
 10
75745546.7080001
 20
23391152.7999981
 10
75745557.6880001
 20
23391211.7799981
 10
75745569.076
 20
23391270.6759981
 10
75745580.872
 20
23391329.5239981
 10
75745593.0400001
 20
23391388.2879981
 10
75745605.6400001
 20
23391446.9319982
 10
75745608.0040001
 20
23391480.0039982
 10
75747340.3960001
 20
23391094.8519981
  0
LWPOLYLINE
  5
20073
  8
0
100
AcDbEntity
100
AcDbPolyline
 70
0
 90
9
 62
7
370
0
 10
75747541.2640002
 20
23391839.5599982
 10
75747516.0040001
 20
23391768.0039981
 10
75747340.3960001
 20
23391094.8519981
 10
75745608.0040001
 20
23391480.0039982
 10
75745618.6240002
 20
23391505.5279982
 10
75745632.0040001
 20
23391564.0039981
 10
75745703.992
 20
23391900.0039982
 10
75745776.0040001
 20
23392236.0039982
 10
75747541.2640002
 20
23391839.5599982
  0
LWPOLYLINE
  5
20074
  8
0
100
AcDbEntity
100
AcDbPolyline
 70
0
 90
17
 62
7
370
0
 10
75747804.004
 20
23392584.0039982
 10
75747541.2640002
 20
23391839.5599982
 10
75745776.0040001
 20
23392236.0039982
 10
75745787.4880001
 20
23392294.8999982
 10
75745799.08
 20
23392353.7599981
 10
75745810.7920001
 20
23392412.6079981
 10
75745822.6240001
 20
23392471.4199981
 10
75745834.564
 20
23392530.2319981
 10
75745846.6120001
 20
23392589.0079981
 10
75745858.7800001
 20
23392647.7599981
 10
75745871.0680001
 20
23392706.4879982
 10
75745883.464
 20
23392765.1919983
 10
75745895.9800001
 20
23392823.8719981
 10
75745908.6040001
 20
23392882.5279983
 10
75745921.3480001
 20
23392941.1599981
 10
75745929.9640001
 20
23392980.4479982
 10
75747804.004
 20
23392584.0039982
  0
LWPOLYLINE
  5
20075
  8
0
100
AcDbEntity
100
AcDbPolyline
 70
0
 90
19
 62
7
370
0
 10
75748080.952
 20
23393387.6799983
 10
75747804.004
 20
23392584.0039982
 10
75745929.9640001
 20
23392980.4479982
 10
75745934.2000001
 20
23392999.7679981
 10
75745947.1720001
 20
23393058.3399981
 10
75745960.2520001
 20
23393116.9119981
 10
75745973.4280001
 20
23393175.4359981
 10
75745986.76
 20
23393233.9599982
 10
75746000.176
 20
23393292.4239981
 10
75746013.7240002
 20
23393350.8759982
 10
75746027.3680001
 20
23393409.3039983
 10
75746041.6600001
 20
23393470.4319982
 10
75746055.232
 20
23393528.8719981
 10
75746068.6960001
 20
23393587.3479982
 10
75746082.076
 20
23393645.8359982
 10
75746095.3600001
 20
23393704.3479982
 10
75746108.5480001
 20
23393762.8719981
 10
75746121.6520002
 20
23393821.4319982
 10
75748080.952
 20
23393387.6799983
  0
LWPOLYLINE
  5
20076
  8
0
100
AcDbEntity
100
AcDbPolyline
 70
0
 90
19
 62
7
370
0
 10
75748213.5880001
 20
23393772.5919982
 10
75748080.952
 20
23393387.6799983
 10
75746121.6520002
 20
23393821.4319982
 10
75746134.648
 20
23393880.0039983
 10
75746147.5600001
 20
23393938.5999982
 10
75746160.3760001
 20
23393997.2079982
 10
75746173.108
 20
23394055.8519981
 10
75746185.744
 20
23394114.507998
 10
75746198.2720001
 20
23394173.175998
 10
75746210.7280001
 20
23394231.8799982
 10
75746220.0040001
 20
23394276.0039982
 10
75746231.872
 20
23394334.8159981
 10
75746242.7200002
 20
23394393.8319982
 10
75746252.548
 20
23394453.0159982
 10
75746261.3680001
 20
23394512.3679981
 10
75746269.1560001
 20
23394571.8639982
 10
75746268.0040001
 20
23394612.0039982
 10
75748416.0040001
 20
23394360.0039982
 10
75748213.5880001
 20
23393772.5919982
  0
LWPOLYLINE
  5
20077
  8
0
100
AcDbEntity
100
AcDbPolyline
 70
0
 90
18
 62
7
370
0
 10
75748270.48
 20
23390004.1119983
 10
75748269.0880001
 20
23389984.4919981
 10
75748265.3800001
 20
23389924.5999982
 10
75748262.2
 20
23389864.6839982
 10
75748259.56
 20
23389804.7439982
 10
75748257.4720001
 20
23389744.7799981
 10
75748255.9240001
 20
23389684.8039981
 10
75748254.9280001
 20
23389624.8159981
 10
75748254.4600001
 20
23389564.8159981
 10
75748254.5440001
 20
23389504.815998
 10
75748255.1680002
 20
23389444.8159981
 10
75748256.3320001
 20
23389384.8159981
 10
75748258.0480001
 20
23389324.8519982
 10
75748260.2920001
 20
23389264.8999982
 10
75747180.0040001
 20
23389200.0039981
 10
75747195.7840001
 20
23389775.8959981
 10
75747204.004
 20
23390076.0039982
 10
75748270.48
 20
23390004.1119983
  0
LWPOLYLINE
  5
20078
  8
0
100
AcDbEntity
100
AcDbPolyline
 70
0
 90
18
 62
7
370
0
 10
75748368.0040001
 20
23390748.0039982
 10
75748355.8120001
 20
23390698.8879981
 10
75748345.6240001
 20
23390639.7639982
 10
75748335.9760001
 20
23390580.5439981
 10
75748326.8560001
 20
23390521.2399982
 10
75748318.288
 20
23390461.8519982
 10
75748310.2480001
 20
23390402.3919982
 10
75748302.7480001
 20
23390342.8599983
 10
75748295.788
 20
23390283.2679982
 10
75748289.3680001
 20
23390223.6159982
 10
75748283.4880001
 20
23390163.9039982
 10
75748278.148
 20
23390104.1439981
 10
75748273.3480001
 20
23390044.3359982
 10
75748270.48
 20
23390004.1119983
 10
75747204.004
 20
23390076.0039982
 10
75747242.6440001
 20
23390423.7159982
 10
75747300.004
 20
23390940.0039981
 10
75748368.0040001
 20
23390748.0039982
  0
LWPOLYLINE
  5
20079
  8
0
100
AcDbEntity
100
AcDbPolyline
 70
0
 90
17
 62
7
370
0
 10
75748536.0040001
 20
23391456.0039981
 10
75748522.6240001
 20
23391399.9279983
 10
75748505.2480001
 20
23391342.507998
 10
75748488.508
 20
23391284.8839981
 10
75748472.38
 20
23391227.0919981
 10
75748456.8880002
 20
23391169.1199981
 10
75748442.0440001
 20
23391110.9919982
 10
75748427.8240001
 20
23391052.6959982
 10
75748414.2520001
 20
23390994.2559982
 10
75748401.316
 20
23390935.6719981
 10
75748389.0160002
 20
23390876.9439982
 10
75748377.3640001
 20
23390818.0839983
 10
75748368.0040001
 20
23390748.0039982
 10
75747300.004
 20
23390940.0039981
 10
75747340.3960001
 20
23391094.8519981
 10
75747516.0040001
 20
23391768.0039981
 10
75748536.0040001
 20
23391456.0039981
  0
LWPOLYLINE
  5
2007A
  8
0
100
AcDbEntity
100
AcDbPolyline
 70
0
 90
17
 62
7
370
0
 10
75748800.0040001
 20
23392116.0039982
 10
75748779.4600001
 20
23392072.0119982
 10
75748754.704
 20
23392017.3519981
 10
75748730.5600001
 20
23391962.4279983
 10
75748707.0040001
 20
23391907.2399982
 10
75748684.06
 20
23391851.7999981
 10
75748661.7280001
 20
23391796.1199982
 10
75748640.008
 20
23391740.175998
 10
75748618.9000001
 20
23391684.0159983
 10
75748598.3920001
 20
23391627.6279982
 10
75748578.52
 20
23391571.0239981
 10
75748559.272
 20
23391514.1919982
 10
75748536.0040001
 20
23391456.0039981
 10
75747516.0040001
 20
23391768.0039981
 10
75747541.2640002
 20
23391839.5599982
 10
75747804.004
 20
23392584.0039982
 10
75748800.0040001
 20
23392116.0039982
  0
LWPOLYLINE
  5
2007B
  8
0
100
AcDbEntity
100
AcDbPolyline
 70
0
 90
19
 62
7
370
0
 10
75749208.004
 20
23392740.0039982
 10
75749167.0720001
 20
23392694.8959981
 10
75749127.9520001
 20
23392649.3919982
 10
75749090.0680002
 20
23392602.8679981
 10
75749053.4440002
 20
23392555.3479982
 10
75749018.1160001
 20
23392506.8679981
 10
75748984.0600001
 20
23392457.4639982
 10
75748951.3480002
 20
23392407.1599982
 10
75748920.0040001
 20
23392356.0039981
 10
75748916.0320001
 20
23392348.5279983
 10
75748912.0840001
 20
23392341.0519981
 10
75748884.3880002
 20
23392287.8319983
 10
75748857.2680001
 20
23392234.3119982
 10
75748830.7360001
 20
23392180.4919982
 10
75748800.0040001
 20
23392116.0039982
 10
75747804.004
 20
23392584.0039982
 10
75748080.952
 20
23393387.6799983
 10
75748213.5880001
 20
23393772.5919982
 10
75749208.004
 20
23392740.0039982
  0
LWPOLYLINE
  5
2007C
  8
0
100
AcDbEntity
100
AcDbPolyline
 70
0
 90
17
 62
7
370
0
 10
75749809.4200001
 20
23393168.7279981
 10
75749783.5000001
 20
23393157.5319982
 10
75749728.8760001
 20
23393132.6919983
 10
75749674.7320001
 20
23393106.8199982
 10
75749621.1160001
 20
23393079.9159982
 10
75749568.004
 20
23393052.0039982
 10
75749520.6640002
 20
23393018.1519983
 10
75749472.7960001
 20
23392981.9719982
 10
75749425.912
 20
23392944.5319982
 10
75749380.0480001
 20
23392905.8559981
 10
75749335.2280001
 20
23392865.9799981
 10
75749291.4880001
 20
23392824.9159982
 10
75749248.8640001
 20
23392782.6759982
 10
75749208.004
 20
23392740.0039982
 10
75748213.5880001
 20
23393772.5919982
 10
75749304.0040001
 20
23394180.0039981
 10
75749809.4200001
 20
23393168.7279981
  0
LWPOLYLINE
  5
2007D
  8
0
100
AcDbEntity
100
AcDbPolyline
 70
0
 90
187
 62
7
370
0
 10
75758844.0040001
 20
23407440.0039981
 10
75757944.0160001
 20
23406900.0039982
 10
75755580.0040001
 20
23406876.0039982
 10
75754956.0040001
 20
23406648.0039982
 10
75754692.232
 20
23406551.3679982
 10
75753972.0040001
 20
23406288.0039982
 10
75753684.0040001
 20
23405315.9919981
 10
75754133.8240001
 20
23404489.9599982
 10
75754218.052
 20
23404335.2919982
 10
75754932.1000001
 20
23403024.051998
 10
75755003.992
 20
23402892.0039981
 10
75755976.0040001
 20
23401692.0039981
 10
75754647.064
 20
23401021.5519981
 10
75754622.0200001
 20
23401061.871998
 10
75754589.968
 20
23401112.5959982
 10
75754557.5200001
 20
23401163.0679982
 10
75754524.688
 20
23401213.2879981
 10
75754491.4720001
 20
23401263.2559981
 10
75754457.8600002
 20
23401312.9599982
 10
75754423.8640001
 20
23401362.3999983
 10
75754389.4960001
 20
23401411.5759982
 10
75754354.744
 20
23401460.4879981
 10
75754319.608
 20
23401509.1239982
 10
75754284.1000001
 20
23401557.4959981
 10
75754248.2200002
 20
23401605.5799981
 10
75754211.98
 20
23401653.3879981
 10
75754175.356
 20
23401700.9199982
 10
75754138.372
 20
23401748.1639982
 10
75754101.0160001
 20
23401795.1199981
 10
75754063.3
 20
23401841.7759983
 10
75754025.2240001
 20
23401888.1559981
 10
75753986.788
 20
23401934.2239983
 10
75753948.0040001
 20
23401980.0039981
 10
75753809.4880001
 20
23402164.2039981
 10
75752935.0960002
 20
23403327.0159981
 10
75751990.648
 20
23404582.9839982
 10
75751655.9920001
 20
23405028.0039982
 10
75751641.4600001
 20
23405054.0439983
 10
75751610.0320001
 20
23405105.1519982
 10
75751575.784
 20
23405154.3999982
 10
75751538.8120001
 20
23405201.6439982
 10
75751499.2480001
 20
23405246.7399981
 10
75751457.2
 20
23405289.5319981
 10
75751414.9000001
 20
23405328.0039981
 10
75751412.8120001
 20
23405329.8999984
 10
75751366.2280001
 20
23405367.6999981
 10
75751317.592
 20
23405402.8239981
 10
75751267.0600001
 20
23405435.1519983
 10
75751214.788
 20
23405464.5879981
 10
75751160.9320001
 20
23405491.0239981
 10
75751105.6840001
 20
23405514.3999983
 10
75751049.2
 20
23405534.631998
 10
75750991.6720001
 20
23405551.6479981
 10
75750933.2800001
 20
23405565.4119981
 10
75750874.204
 20
23405575.8639982
 10
75750814.6360002
 20
23405582.9679981
 10
75750754.7680001
 20
23405586.7119982
 10
75750694.7800001
 20
23405587.0959983
 10
75750647.356
 20
23405584.7079982
 10
75750634.852
 20
23405584.0839982
 10
75750575.2000001
 20
23405577.7239982
 10
75750516.0040001
 20
23405568.0039981
 10
75748979.896
 20
23405328.7479982
 10
75748956.0040001
 20
23406708.0039982
 10
75750600.9160002
 20
23406786.3279981
 10
75752484.0040001
 20
23406876.0039982
 10
75752436.16
 20
23408116.7559982
 10
75752483.7520002
 20
23408115.051998
 10
75752543.6920002
 20
23408112.5439982
 10
75752603.632
 20
23408109.6999982
 10
75752663.548
 20
23408106.4839982
 10
75752723.44
 20
23408102.9079981
 10
75752783.3080001
 20
23408098.9719982
 10
75752843.1520002
 20
23408094.6759981
 10
75752902.9720002
 20
23408090.0199981
 10
75752962.7560001
 20
23408084.9919981
 10
75753022.5160001
 20
23408079.6159981
 10
75753082.24
 20
23408073.8679982
 10
75753141.9280001
 20
23408067.771998
 10
75753201.58
 20
23408061.315998
 10
75753261.1960001
 20
23408054.4879982
 10
75753320.7640002
 20
23408047.3119981
 10
75753380.2840001
 20
23408039.7759982
 10
75753439.7680001
 20
23408031.8799982
 10
75753468.0040001
 20
23408028.0039982
 10
75754140.0040001
 20
23407884.0159983
 10
75754195.7080002
 20
23407862.0679983
 10
75754244.4280002
 20
23407827.3399982
 10
75754283.344
 20
23407781.8599983
 10
75754310.1280001
 20
23407728.3399982
 10
75754320.0040001
 20
23407692.0039982
 10
75754337.704
 20
23407634.7039981
 10
75754361.7280001
 20
23407579.7679982
 10
75754391.7760001
 20
23407527.8679982
 10
75754427.464
 20
23407479.6639982
 10
75754468.3360001
 20
23407435.7919982
 10
75754513.8760002
 20
23407396.7799982
 10
75754563.5200001
 20
23407363.1439982
 10
75754616.632
 20
23407335.2679982
 10
75754672.5280001
 20
23407313.5599983
 10
75754730.5120002
 20
23407298.2599981
 10
75754777.0960001
 20
23407291.4439982
 10
75754789.8400001
 20
23407289.5839981
 10
75754849.7800001
 20
23407287.6039981
 10
75754909.564
 20
23407292.3799982
 10
75754968.4240001
 20
23407303.8399981
 10
75755025.6280001
 20
23407321.8519983
 10
75755080.4440002
 20
23407346.1639983
 10
75755132.1760001
 20
23407376.475998
 10
75755180.1880001
 20
23407412.4159982
 10
75755223.844
 20
23407453.5279982
 10
75755262.616
 20
23407499.2719982
 10
75755296.0000001
 20
23407549.0959982
 10
75755323.5760001
 20
23407602.3279981
 10
75755345.008
 20
23407658.3559981
 10
75755359.996
 20
23407716.4239981
 10
75755368.372
 20
23407775.799998
 10
75755370.0280001
 20
23407835.7399982
 10
75755364.9280002
 20
23407895.4999983
 10
75755353.1560001
 20
23407954.2999981
 10
75755334.856
 20
23408011.4079981
 10
75755310.244
 20
23408066.091998
 10
75755280.0040001
 20
23408112.0039982
 10
75755243.4640001
 20
23408165.4879982
 10
75755202.1240001
 20
23408208.9279983
 10
75755156.176
 20
23408247.4599982
 10
75755106.1840001
 20
23408280.5799981
 10
75755052.7840001
 20
23408307.8799982
 10
75754996.6720001
 20
23408328.9999982
 10
75754956.004
 20
23408340.0039982
 10
75754308.0040001
 20
23408460.0039982
 10
75754188.6040001
 20
23408486.9679981
 10
75753564.0040001
 20
23408628.0159982
 10
75753504.496
 20
23408635.6479982
 10
75753444.94
 20
23408642.9799981
 10
75753385.3480001
 20
23408649.9759982
 10
75753325.732
 20
23408656.6719981
 10
75753266.0680001
 20
23408663.0319981
 10
75753206.3680001
 20
23408669.0559982
 10
75753146.644
 20
23408674.7919982
 10
75753086.884
 20
23408680.1919982
 10
75753027.1000001
 20
23408685.2799982
 10
75752967.2920001
 20
23408690.0439982
 10
75752907.4600001
 20
23408694.4719982
 10
75752867.812
 20
23408697.2079983
 10
75752832.0040001
 20
23410320.0039982
 10
75752820.1000001
 20
23410781.8119981
 10
75753924.0040001
 20
23410764.003998
 10
75754597.5880001
 20
23410516.2759982
 10
75756084.0160001
 20
23409972.0039982
 10
75757869.172
 20
23409313.0479982
 10
75757894.756
 20
23409253.9959981
 10
75757918.8400001
 20
23409199.0479981
 10
75757943.176
 20
23409144.1959982
 10
75757967.716
 20
23409089.439998
 10
75757992.4720001
 20
23409034.7919982
 10
75758017.4440002
 20
23408980.2399982
 10
75758042.6560001
 20
23408925.7839981
 10
75758068.0720001
 20
23408871.4359982
 10
75758093.716
 20
23408817.1959983
 10
75758119.5760001
 20
23408763.0519981
 10
75758145.6520001
 20
23408709.0159982
 10
75758171.9440001
 20
23408655.0759981
 10
75758198.4640001
 20
23408601.2559982
 10
75758225.1880001
 20
23408547.5439981
 10
75758252.1400001
 20
23408493.9399981
 10
75758279.3080001
 20
23408440.4319982
 10
75758306.6800002
 20
23408387.0439981
 10
75758334.2800001
 20
23408333.7759982
 10
75758362.0960002
 20
23408280.6039981
 10
75758390.116
 20
23408227.5519981
 10
75758418.3640001
 20
23408174.6199981
 10
75758446.816
 20
23408121.7959983
 10
75758475.4840002
 20
23408069.0919981
 10
75758504.356
 20
23408016.4959981
 10
75758533.4560002
 20
23407964.0199981
 10
75758562.772
 20
23407911.6639983
 10
75758592.2800001
 20
23407859.4279982
 10
75758622.0160001
 20
23407807.3119982
 10
75758640.0040001
 20
23407776.0039982
 10
75758670.4240001
 20
23407724.2839981
 10
75758701.024
 20
23407672.6719982
 10
75758731.7920001
 20
23407621.1679982
 10
75758762.7400001
 20
23407569.7599981
 10
75758793.856
 20
23407518.4599982
 10
75758825.1400001
 20
23407467.2799981
 10
75758844.0040001
 20
23407440.0039981
  0
LWPOLYLINE
  5
2007E
  8
0
100
AcDbEntity
100
AcDbPolyline
 70
0
 90
40
 62
7
370
0
 10
75752592.0040001
 20
23400228.0039982
 10
75751920.0040001
 20
23399844.0039983
 10
75751406.2360001
 20
23400757.7199982
 10
75751272.0040001
 20
23401008.0039981
 10
75750827.176
 20
23401787.5359981
 10
75750660.0040001
 20
23402100.0039982
 10
75750131.9440002
 20
23403023.967998
 10
75749916.0040001
 20
23403408.0039982
 10
75749591.872
 20
23404740.8799981
 10
75750636.0040001
 20
23404896.0039982
 10
75750695.0440001
 20
23404906.3119981
 10
75750754.9840002
 20
23404907.2359982
 10
75750814.3120001
 20
23404898.7519982
 10
75750871.588
 20
23404881.0879981
 10
75750925.384
 20
23404854.6519983
 10
75750974.392
 20
23404820.1279982
 10
75751017.3520001
 20
23404778.3439981
 10
75751053.244
 20
23404730.343998
 10
75751080.0040001
 20
23404680.0039982
 10
75751501.924
 20
23404117.4439983
 10
75752365.936
 20
23402965.4439983
 10
75753072.0040001
 20
23402040.0039981
 10
75753420.0040001
 20
23401560.0159982
 10
75753458.6560001
 20
23401514.1159981
 10
75753496.924
 20
23401467.9039982
 10
75753534.8080001
 20
23401421.3679981
 10
75753572.296
 20
23401374.5319982
 10
75753609.412
 20
23401327.3839981
 10
75753646.12
 20
23401279.9239981
 10
75753682.4440002
 20
23401232.1759981
 10
75753718.372
 20
23401184.1159981
 10
75753753.892
 20
23401135.7679982
 10
75753789.0160001
 20
23401087.1199981
 10
75753823.732
 20
23401038.1839982
 10
75753858.0400001
 20
23400988.9599982
 10
75753891.952
 20
23400939.4599983
 10
75753925.4440001
 20
23400889.6719981
 10
75753958.5160001
 20
23400839.6079981
 10
75753991.1800002
 20
23400789.2799982
 10
75752592.0040001
 20
23400228.0039982
  0
LWPOLYLINE
  5
2007F
  8
0
100
AcDbEntity
100
AcDbPolyline
 70
0
 90
20
 62
7
370
0
 10
75750336.0040001
 20
23389668.0039981
 10
75750327.7120001
 20
23389019.9559982
 10
75748970.4760001
 20
23388828.3519982
 10
75748967.968
 20
23388848.6919983
 10
75748961.2360001
 20
23388908.3199983
 10
75748955.104
 20
23388967.9959981
 10
75748949.5480001
 20
23389027.7439981
 10
75748944.6040001
 20
23389087.5399982
 10
75748940.2480001
 20
23389147.3839981
 10
75748936.4800001
 20
23389207.2639981
 10
75748933.3120001
 20
23389267.1799982
 10
75748930.732
 20
23389327.1199982
 10
75748928.7640001
 20
23389387.0839982
 10
75748927.384
 20
23389447.0719981
 10
75748926.6040001
 20
23389507.0719981
 10
75748926.4240001
 20
23389567.0599983
 10
75748926.8320001
 20
23389627.0719982
 10
75748927.84
 20
23389687.0599982
 10
75748929.436
 20
23389747.0479981
 10
75750336.0040001
 20
23389668.0039981
  0
LWPOLYLINE
  5
20080
  8
0
100
AcDbEntity
100
AcDbPolyline
 70
0
 90
18
 62
7
370
0
 10
75750453.7480002
 20
23390352.3759982
 10
75750336.0040001
 20
23389668.0039981
 10
75748929.436
 20
23389747.0479981
 10
75748931.6320001
 20
23389806.9999982
 10
75748934.4280001
 20
23389866.9279982
 10
75748937.8240001
 20
23389926.8439981
 10
75748941.8080001
 20
23389986.6999982
 10
75748946.3800001
 20
23390046.5199981
 10
75748951.564
 20
23390106.3039982
 10
75748957.324
 20
23390166.0279983
 10
75748963.6960002
 20
23390225.6799981
 10
75748970.6440001
 20
23390285.283998
 10
75748978.1920002
 20
23390344.8039981
 10
75748986.328
 20
23390404.2519982
 10
75748995.052
 20
23390463.6159983
 10
75749004.3760001
 20
23390522.8839981
 10
75749016.0160001
 20
23390592.0039981
 10
75750453.7480002
 20
23390352.3759982
  0
LWPOLYLINE
  5
20081
  8
0
100
AcDbEntity
100
AcDbPolyline
 70
0
 90
21
 62
7
370
0
 10
75750528.0040001
 20
23390784.0039982
 10
75750453.7480002
 20
23390352.3759982
 10
75749016.0160001
 20
23390592.0039981
 10
75749026.6240002
 20
23390651.0559981
 10
75749037.9880001
 20
23390709.9879982
 10
75749050.0720001
 20
23390768.7399982
 10
75749062.936
 20
23390827.3479982
 10
75749076.5200001
 20
23390885.7879981
 10
75749090.8480002
 20
23390944.0479982
 10
75749105.9080001
 20
23391002.1159981
 10
75749121.7000001
 20
23391060.0159982
 10
75749138.2120001
 20
23391117.6999982
 10
75749155.468
 20
23391175.1559982
 10
75749173.4320001
 20
23391232.4079983
 10
75749192.1280001
 20
23391289.4199982
 10
75749211.5440001
 20
23391346.1919983
 10
75749231.6800002
 20
23391402.7119981
 10
75749252.5120002
 20
23391458.9799982
 10
75749268.8920001
 20
23391503.6679982
 10
75750646.228
 20
23390976.6759982
 10
75750528.0040001
 20
23390784.0039982
  0
LWPOLYLINE
  5
20082
  8
0
100
AcDbEntity
100
AcDbPolyline
 70
0
 90
26
 62
7
370
0
 10
75750852.004
 20
23391312.0039982
 10
75750646.228
 20
23390976.6759982
 10
75749268.8920001
 20
23391503.6679982
 10
75749296.324
 20
23391570.6879982
 10
75749319.2800001
 20
23391626.1279983
 10
75749342.9440002
 20
23391681.2679981
 10
75749367.2920001
 20
23391736.0959982
 10
75749392.3360001
 20
23391790.6239982
 10
75749418.052
 20
23391844.8279981
 10
75749444.4760001
 20
23391898.6959982
 10
75749471.56
 20
23391952.2399981
 10
75749499.3280001
 20
23392005.4359981
 10
75749520.0040001
 20
23392044.0039982
 10
75749551.48
 20
23392095.0879982
 10
75749585.2360002
 20
23392144.6719981
 10
75749621.2240001
 20
23392192.6839982
 10
75749659.372
 20
23392238.9919982
 10
75749699.5600001
 20
23392283.535998
 10
75749741.7400001
 20
23392326.1839981
 10
75749785.828
 20
23392366.8879983
 10
75749831.7160001
 20
23392405.5279982
 10
75749879.3200002
 20
23392442.0439982
 10
75749928.0040001
 20
23392476.0039982
 10
75749977.5880001
 20
23392509.7599981
 10
75750029.9440001
 20
23392539.0279983
 10
75750852.004
 20
23391312.0039982
  0
LWPOLYLINE
  5
20083
  8
0
100
AcDbEntity
100
AcDbPolyline
 70
0
 90
8
 62
7
370
0
 10
75750528.496
 20
23393446.6839982
 10
75750276.0040001
 20
23393352.0039982
 10
75749894.0920001
 20
23393204.0799981
 10
75749838.5680001
 20
23393181.327998
 10
75749809.4200001
 20
23393168.7279981
 10
75749304.0040001
 20
23394180.0039981
 10
75750166.132
 20
23394497.0799981
 10
75750528.496
 20
23393446.6839982
  0
LWPOLYLINE
  5
20084
  8
0
100
AcDbEntity
100
AcDbPolyline
 70
0
 90
9
 62
7
370
0
 10
75751378.828
 20
23391483.7359982
 10
75750852.004
 20
23391312.0039982
 10
75750029.9440001
 20
23392539.0279983
 10
75750084.6640001
 20
23392563.5679982
 10
75750141.34
 20
23392583.2119981
 10
75750516.0040001
 20
23392728.0039981
 10
75750876.0160001
 20
23392860.0039981
 10
75750936.004
 20
23392884.0039981
 10
75751378.828
 20
23391483.7359982
  0
LWPOLYLINE
  5
20085
  8
0
100
AcDbEntity
100
AcDbPolyline
 70
0
 90
10
 62
7
370
0
 10
75751222.7800001
 20
23393691.6399982
 10
75751177.8760001
 20
23393675.5119982
 10
75751121.3200001
 20
23393655.4479981
 10
75751064.704
 20
23393635.6119982
 10
75751008.0040001
 20
23393616.0039982
 10
75750660.0040001
 20
23393496.0039981
 10
75750528.496
 20
23393446.6839982
 10
75750166.132
 20
23394497.0799981
 10
75750864.004
 20
23394756.0039982
 10
75751222.7800001
 20
23393691.6399982
  0
LWPOLYLINE
  5
20086
  8
0
100
AcDbEntity
100
AcDbPolyline
 70
0
 90
14
 62
7
370
0
 10
75751467.9160002
 20
23389655.7759982
 10
75751452.0040001
 20
23389380.0039982
 10
75751447.288
 20
23389325.8839981
 10
75751443.856
 20
23389265.9919981
 10
75751442.272
 20
23389206.0159982
 10
75751442.536
 20
23389146.0159981
 10
75751444.6720001
 20
23389086.051998
 10
75751448.6560001
 20
23389026.1839982
 10
75751454.4880001
 20
23388966.4719981
 10
75751464.0040001
 20
23388912.0159982
 10
75750324.0040001
 20
23388732.0039983
 10
75750327.7120001
 20
23389019.9559982
 10
75750336.0040001
 20
23389668.0039981
 10
75751467.9160002
 20
23389655.7759982
  0
LWPOLYLINE
  5
20087
  8
0
100
AcDbEntity
100
AcDbPolyline
 70
0
 90
11
 62
7
370
0
 10
75751562.8000001
 20
23390248.7679982
 10
75751552.7680001
 20
23390232.8919982
 10
75751526.7640001
 20
23390178.867998
 10
75751507.144
 20
23390122.2039981
 10
75751494.16
 20
23390063.6439982
 10
75751488.0040001
 20
23390004.0039982
 10
75751467.9160002
 20
23389655.7759982
 10
75750336.0040001
 20
23389668.0039981
 10
75750453.7480002
 20
23390352.3759982
 10
75750528.0040001
 20
23390784.0039982
 10
75751562.8000001
 20
23390248.7679982
  0
LWPOLYLINE
  5
20088
  8
0
100
AcDbEntity
100
AcDbPolyline
 70
0
 90
117
 62
7
370
0
 10
75756564.952
 20
23415942.6039982
 10
75756582.676
 20
23415885.3879981
 10
75756588.0040001
 20
23415840.0039982
 10
75756684.0040001
 20
23414304.0039982
 10
75756687.6880001
 20
23414244.1119982
 10
75756691.6120001
 20
23414184.2319981
 10
75756695.7760001
 20
23414124.3879982
 10
75756700.1920001
 20
23414064.5439981
 10
75756704.8480001
 20
23414004.7359982
 10
75756709.732
 20
23413944.9279982
 10
75756714.868
 20
23413885.1559982
 10
75756720.2440001
 20
23413825.3959981
 10
75756725.8719999
 20
23413765.6599981
 10
75756731.7400001
 20
23413705.9479982
 10
75756737.824
 20
23413646.259998
 10
75756744.172
 20
23413586.5959983
 10
75756750.76
 20
23413526.9559983
 10
75756757.5760001
 20
23413467.3399981
 10
75756764.6440001
 20
23413407.7599981
 10
75756771.9520001
 20
23413348.2039981
 10
75756779.5000001
 20
23413288.6839982
 10
75756787.288
 20
23413229.1879983
 10
75756795.316
 20
23413169.7279983
 10
75756803.5840001
 20
23413110.3039982
 10
75756812.0920001
 20
23413050.9159982
 10
75756820.8520001
 20
23412991.551998
 10
75756829.8400001
 20
23412932.2359982
 10
75756839.0680002
 20
23412872.9439983
 10
75756848.536
 20
23412813.6999981
 10
75756858.244
 20
23412754.4919981
 10
75756868.204
 20
23412695.3199983
 10
75756878.3800001
 20
23412636.1839981
 10
75756888.8200002
 20
23412577.1079981
 10
75756899.4640001
 20
23412518.0559982
 10
75756910.372
 20
23412459.0519981
 10
75756921.5200001
 20
23412400.0959982
 10
75756932.896
 20
23412341.1999981
 10
75756944.5120002
 20
23412282.3279981
 10
75756956.368
 20
23412223.5039982
 10
75756968.4640001
 20
23412164.7399981
 10
75756980.8000001
 20
23412106.0239981
 10
75756993.3640001
 20
23412047.3559981
 10
75757006.1680001
 20
23411988.7359983
 10
75757019.2120001
 20
23411930.1759981
 10
75757032.496
 20
23411871.6639982
 10
75757046.008
 20
23411813.1999982
 10
75757059.76
 20
23411754.8079982
 10
75757073.7520001
 20
23411696.4519982
 10
75757087.9720002
 20
23411638.1679981
 10
75757102.4320002
 20
23411579.9319982
 10
75757117.132
 20
23411521.7559982
 10
75757132.0600001
 20
23411463.6399982
 10
75757147.228
 20
23411405.5959982
 10
75757162.6240002
 20
23411347.5999982
 10
75757178.26
 20
23411289.6759981
 10
75757194.1360001
 20
23411231.811998
 10
75757210.24
 20
23411174.0199981
 10
75757226.5600001
 20
23411116.2759983
 10
75757243.1440001
 20
23411058.6159981
 10
75757259.9320001
 20
23411001.0039982
 10
75757276.9840001
 20
23410943.4879982
 10
75757294.2520001
 20
23410886.0199982
 10
75757311.7480002
 20
23410828.6359983
 10
75757329.4720001
 20
23410771.3119981
 10
75757347.436
 20
23410714.0599982
 10
75757365.6400001
 20
23410656.8919982
 10
75757384.06
 20
23410599.7839982
 10
75757402.7200002
 20
23410542.7599981
 10
75757421.608
 20
23410485.8079982
 10
75757440.7240001
 20
23410428.951998
 10
75757460.0680001
 20
23410372.1439981
 10
75757479.6520001
 20
23410315.4319982
 10
75757499.452
 20
23410258.7919982
 10
75757519.492
 20
23410202.2359982
 10
75757539.7480001
 20
23410145.7639983
 10
75757560.2440001
 20
23410089.3639981
 10
75757580.9560002
 20
23410033.0599982
 10
75757601.9080001
 20
23409976.8399982
 10
75757623.0880001
 20
23409920.6919982
 10
75757644.4840001
 20
23409864.6399981
 10
75757666.108
 20
23409808.6719982
 10
75757687.9600001
 20
23409752.7999981
 10
75757710.052
 20
23409697.0119983
 10
75757732.3480001
 20
23409641.3079982
 10
75757754.8719999
 20
23409585.6879981
 10
75757777.6360001
 20
23409530.1759981
 10
75757800.6160001
 20
23409474.759998
 10
75757823.812
 20
23409419.4279982
 10
75757847.2360001
 20
23409364.1799982
 10
75757869.172
 20
23409313.0479982
 10
75756084.0160001
 20
23409972.0039982
 10
75754597.5880001
 20
23410516.2759982
 10
75753924.0040001
 20
23410764.003998
 10
75752820.1000001
 20
23410781.8119981
 10
75752436.004
 20
23410788.0039981
 10
75752426.44
 20
23411760.0279982
 10
75752413.3360001
 20
23413092.0159982
 10
75752399.9920001
 20
23414448.0039981
 10
75750621.3760001
 20
23414435.9799981
 10
75750612.0040001
 20
23415588.0039982
 10
75750616.8760001
 20
23415647.703998
 10
75750633.2800001
 20
23415705.3279981
 10
75750660.532
 20
23415758.6679982
 10
75750697.6360002
 20
23415805.7079981
 10
75750743.1520001
 20
23415844.6479981
 10
75750795.3640001
 20
23415874.0119982
 10
75750852.2800001
 20
23415892.6839982
 10
75750918.3760001
 20
23415906.0879982
 10
75751572.0040001
 20
23415888.0039982
 10
75752880.0040001
 20
23415924.0039982
 10
75756276.0040001
 20
23416116.0039981
 10
75756335.884
 20
23416114.8519982
 10
75756394.228
 20
23416101.3279981
 10
75756448.5160001
 20
23416076.0199981
 10
75756496.3600002
 20
23416040.0199982
 10
75756535.7560001
 20
23415994.8999982
 10
75756564.952
 20
23415942.6039982
  0
LWPOLYLINE
  5
20089
  8
0
100
AcDbEntity
100
AcDbPolyline
 70
0
 90
21
 62
7
370
0
 10
75752664.004
 20
23415144.0039981
 10
75752679.6520001
 20
23413944.0399982
 10
75752700.0040001
 20
23412383.9919981
 10
75753164.6680001
 20
23412372.0879981
 10
75753156.004
 20
23411376.0039982
 10
75754379.788
 20
23411376.0039981
 10
75754392.0040001
 20
23410920.0039981
 10
75756324.0040001
 20
23410944.0039982
 10
75756276.0040001
 20
23412288.0039982
 10
75755940.0040001
 20
23412288.0039981
 10
75755916.0040001
 20
23412396.0039982
 10
75754728.0040001
 20
23412396.0039981
 10
75754716.0040001
 20
23412264.0039981
 10
75754356.0040001
 20
23412264.0039982
 10
75754362.4360001
 20
23412024.0039981
 10
75753660.004
 20
23412024.0039981
 10
75753648.0040001
 20
23412755.9919981
 10
75753900.0040001
 20
23412755.9919981
 10
75753882.0040001
 20
23413956.0879982
 10
75753864.0040001
 20
23415156.0039981
 10
75752664.004
 20
23415144.0039981
  0
LWPOLYLINE
  5
2008A
  8
0
100
AcDbEntity
100
AcDbPolyline
 70
0
 90
7
 62
7
370
0
 10
75751344.004
 20
23415264.0039981
 10
75751356.0040001
 20
23414640.0039981
 10
75752304.004
 20
23414640.0039982
 10
75752328.004
 20
23415120.0039982
 10
75752184.0040001
 20
23415132.0039981
 10
75752148.0040001
 20
23415276.0039981
 10
75751344.004
 20
23415264.0039981
  0
LWPOLYLINE
  5
2008B
  8
0
100
AcDbEntity
100
AcDbPolyline
 70
0
 90
15
 62
7
370
0
 10
75751942.6840001
 20
23390496.4239981
 10
75751875.3880001
 20
23390483.7999981
 10
75751818.3760001
 20
23390465.2119981
 10
75751763.872
 20
23390440.2039981
 10
75751712.608
 20
23390409.0639981
 10
75751665.2800001
 20
23390372.2479983
 10
75751622.5000001
 20
23390330.2359982
 10
75751584.8200001
 20
23390283.5799981
 10
75751562.8000001
 20
23390248.7679982
 10
75750528.0040001
 20
23390784.0039982
 10
75750646.228
 20
23390976.6759982
 10
75750852.004
 20
23391312.0039982
 10
75751378.828
 20
23391483.7359982
 10
75751822.5760001
 20
23391628.3839982
 10
75751942.6840001
 20
23390496.4239981
  0
LWPOLYLINE
  5
2008C
  8
0
100
AcDbEntity
100
AcDbPolyline
 70
0
 90
22
 62
7
370
0
 10
75752088.6520001
 20
23394034.5039981
 10
75752071.0840001
 20
23394026.8959981
 10
75752015.9320001
 20
23394003.2679982
 10
75751960.6840001
 20
23393979.8799981
 10
75751905.3520001
 20
23393956.6839982
 10
75751849.9120001
 20
23393933.7279981
 10
75751794.4000002
 20
23393910.9879981
 10
75751738.7800001
 20
23393888.4639981
 10
75751683.076
 20
23393866.1679982
 10
75751627.288
 20
23393844.0879982
 10
75751571.4040001
 20
23393822.2359982
 10
75751515.436
 20
23393800.5879981
 10
75751459.384
 20
23393779.1919982
 10
75751403.2480002
 20
23393758.0119982
 10
75751347.0280001
 20
23393737.0479981
 10
75751290.7360001
 20
23393716.3119981
 10
75751234.3480002
 20
23393695.8039982
 10
75751228.564
 20
23393693.7159981
 10
75751222.7800001
 20
23393691.6399982
 10
75750864.004
 20
23394756.0039982
 10
75751632.004
 20
23395056.0039981
 10
75752088.6520001
 20
23394034.5039981
  0
LWPOLYLINE
  5
2008D
  8
0
100
AcDbEntity
100
AcDbPolyline
 70
0
 90
14
 62
7
370
0
 10
75750936.004
 20
23392884.0039981
 10
75751224.0040001
 20
23392980.0039982
 10
75751280.5960002
 20
23392999.9239981
 10
75751337.1280001
 20
23393020.0479981
 10
75751393.576
 20
23393040.3759982
 10
75751449.9640001
 20
23393060.8959982
 10
75751506.2680001
 20
23393081.6079981
 10
75751562.5120001
 20
23393102.523998
 10
75751618.6720001
 20
23393123.6319982
 10
75751644.0040001
 20
23393136.0039982
 10
75752147.2120001
 20
23391734.1999982
 10
75751822.5760001
 20
23391628.3839982
 10
75751378.828
 20
23391483.7359982
 10
75750936.004
 20
23392884.0039981
  0
LWPOLYLINE
  5
2008E
  8
0
100
AcDbEntity
100
AcDbPolyline
 70
0
 90
9
 62
7
370
0
 10
75752352.0040001
 20
23395392.0039981
 10
75752808.0040001
 20
23394360.0039982
 10
75752256.0040001
 20
23394108.0039982
 10
75752235.9760001
 20
23394099.0759981
 10
75752181.1120002
 20
23394074.7999981
 10
75752126.1520001
 20
23394050.7399982
 10
75752088.6520001
 20
23394034.5039981
 10
75751632.004
 20
23395056.0039981
 10
75752352.0040001
 20
23395392.0039981
  0
LWPOLYLINE
  5
2008F
  8
0
100
AcDbEntity
100
AcDbPolyline
 70
0
 90
18
 62
7
370
0
 10
75753024.004
 20
23392020.0039982
 10
75752147.2120001
 20
23391734.1999982
 10
75751644.0040001
 20
23393136.0039982
 10
75751674.76
 20
23393144.9439981
 10
75751730.7760002
 20
23393166.4479982
 10
75751786.7080001
 20
23393188.1439982
 10
75751842.5680001
 20
23393210.0439982
 10
75751898.344
 20
23393232.1359982
 10
75751954.0600001
 20
23393254.4199981
 10
75752009.6920001
 20
23393276.9079982
 10
75752065.2400001
 20
23393299.5879982
 10
75752120.7160001
 20
23393322.4599982
 10
75752176.0960002
 20
23393345.523998
 10
75752231.4040001
 20
23393368.7919982
 10
75752286.6280001
 20
23393392.2399982
 10
75752341.7800001
 20
23393415.8919982
 10
75752373.5560001
 20
23393429.6559982
 10
75753024.004
 20
23392020.0039982
  0
LWPOLYLINE
  5
20090
  8
0
100
AcDbEntity
100
AcDbPolyline
 70
0
 90
17
 62
7
370
0
 10
75753024.004
 20
23392020.0039982
 10
75753198.052
 20
23391896.5359981
 10
75752760.004
 20
23390976.0039982
 10
75752428.0480001
 20
23390286.3519982
 10
75752414.116
 20
23390305.9479982
 10
75752373.9760001
 20
23390350.5039981
 10
75752328.9880002
 20
23390390.1519982
 10
75752279.7400001
 20
23390424.3639982
 10
75752226.8800001
 20
23390452.6719981
 10
75752171.1160001
 20
23390474.7279981
 10
75752113.1800002
 20
23390490.2079983
 10
75752053.852
 20
23390498.9319982
 10
75751993.912
 20
23390500.7799982
 10
75751942.6840001
 20
23390496.4239981
 10
75751822.5760001
 20
23391628.3839982
 10
75752147.2120001
 20
23391734.1999982
 10
75753024.004
 20
23392020.0039982
  0
LWPOLYLINE
  5
20091
  8
0
100
AcDbEntity
100
AcDbPolyline
 70
0
 90
34
 62
7
370
0
 10
75753722.8480001
 20
23389630.8999983
 10
75753714.88
 20
23389610.4999982
 10
75753693.4840001
 20
23389554.4359982
 10
75753672.5200001
 20
23389498.2159982
 10
75753651.9880001
 20
23389441.8399982
 10
75753631.9000001
 20
23389385.3079982
 10
75753612.232
 20
23389328.6199981
 10
75753593.008
 20
23389271.7879981
 10
75753574.228
 20
23389214.799998
 10
75753555.8800001
 20
23389157.6679982
 10
75753537.964
 20
23389100.4039982
 10
75753520.504
 20
23389043.0079981
 10
75753503.4760001
 20
23388985.479998
 10
75753486.8920001
 20
23388927.8079982
 10
75753470.7400001
 20
23388870.0279982
 10
75753462.9880001
 20
23388841.3839981
 10
75752028.784
 20
23389235.3559981
 10
75752028.1120001
 20
23389286.3439981
 10
75752038.8040001
 20
23389345.2159981
 10
75752064.2680001
 20
23389399.3599983
 10
75752102.8120001
 20
23389445.1279982
 10
75752151.8200001
 20
23389479.4479982
 10
75752211.5080001
 20
23389501.4799982
 10
75752265.256
 20
23389528.0719981
 10
75752315.5840001
 20
23389560.6759981
 10
75752361.8320001
 20
23389598.8479982
 10
75752403.3880002
 20
23389642.0839982
 10
75752439.688
 20
23389689.8199983
 10
75752470.2520001
 20
23389741.4079981
 10
75752494.6840001
 20
23389796.1759981
 10
75752512.66
 20
23389853.379998
 10
75752523.9280001
 20
23389912.2759981
 10
75752528.176
 20
23389976.0439982
 10
75753722.8480001
 20
23389630.8999983
  0
LWPOLYLINE
  5
20092
  8
0
100
AcDbEntity
100
AcDbPolyline
 70
0
 90
6
 62
7
370
0
 10
75753549.9880001
 20
23394724.3479982
 10
75753515.9920001
 20
23394708.0039981
 10
75752808.0040001
 20
23394360.0039982
 10
75752352.0040001
 20
23395392.0039981
 10
75753084.0040001
 20
23395728.0039983
 10
75753549.9880001
 20
23394724.3479982
  0
LWPOLYLINE
  5
20093
  8
0
100
AcDbEntity
100
AcDbPolyline
 70
0
 90
17
 62
7
370
0
 10
75753733.552
 20
23392509.7719981
 10
75753024.004
 20
23392020.0039982
 10
75752373.5560001
 20
23393429.6559982
 10
75752396.8360001
 20
23393439.7359983
 10
75752451.8080001
 20
23393463.7719981
 10
75752506.6960001
 20
23393487.9999982
 10
75752561.5000001
 20
23393512.4199981
 10
75752616.2200001
 20
23393537.0319981
 10
75752670.856
 20
23393561.8359982
 10
75752725.4080001
 20
23393586.8319982
 10
75752779.8760001
 20
23393612.0199981
 10
75752834.2240001
 20
23393637.4119981
 10
75752888.5120002
 20
23393662.9599982
 10
75752916.0040001
 20
23393676.0039981
 10
75753096.0040001
 20
23393760.0039981
 10
75753130.1680001
 20
23393775.9399981
 10
75753733.552
 20
23392509.7719981
  0
LWPOLYLINE
  5
20094
  8
0
100
AcDbEntity
100
AcDbPolyline
 70
0
 90
24
 62
7
370
0
 10
75754041.1120001
 20
23390341.4439982
 10
75754031.6440001
 20
23390322.9159982
 10
75754004.7760001
 20
23390269.2759983
 10
75753978.3040002
 20
23390215.4319982
 10
75753952.2520001
 20
23390161.3839981
 10
75753926.608
 20
23390107.1319982
 10
75753901.396
 20
23390052.6879981
 10
75753876.6040001
 20
23389998.0519981
 10
75753852.232
 20
23389943.223998
 10
75753828.268
 20
23389888.2279981
 10
75753804.7360001
 20
23389833.0279982
 10
75753781.6360002
 20
23389777.6479981
 10
75753758.9560002
 20
23389722.0999983
 10
75753736.6960001
 20
23389666.3839981
 10
75753722.8480001
 20
23389630.8999983
 10
75752528.176
 20
23389976.0439982
 10
75752525.8600002
 20
23390031.9999982
 10
75752516.5000002
 20
23390091.2319981
 10
75752500.384
 20
23390148.9879982
 10
75752477.7400001
 20
23390204.5119983
 10
75752448.856
 20
23390257.0839982
 10
75752428.0480001
 20
23390286.3519982
 10
75752760.004
 20
23390976.0039982
 10
75754041.1120001
 20
23390341.4439982
  0
LWPOLYLINE
  5
20095
  8
0
100
AcDbEntity
100
AcDbPolyline
 70
0
 90
8
 62
7
370
0
 10
75753648.0040001
 20
23412755.9919981
 10
75753168.004
 20
23412755.9919982
 10
75753164.6680001
 20
23412372.0879981
 10
75752700.0040001
 20
23412383.9919981
 10
75752679.6520001
 20
23413944.0399982
 10
75753882.0040001
 20
23413956.0879982
 10
75753900.0040001
 20
23412755.9919981
 10
75753648.0040001
 20
23412755.9919981
  0
LWPOLYLINE
  5
20096
  8
0
100
AcDbEntity
100
AcDbPolyline
 70
0
 90
267
 62
7
370
0
 10
75759769.552
 20
23406083.8599982
 10
75760320.676
 20
23405328.7839981
 10
75760321.2520001
 20
23405328.0039982
 10
75761151.496
 20
23404190.5719982
 10
75761784.004
 20
23403324.0039981
 10
75761812.9000002
 20
23403271.5279981
 10
75761831.26
 20
23403214.5039982
 10
75761838.4240001
 20
23403155.0199981
 10
75761834.1280001
 20
23403095.2719981
 10
75761818.5160001
 20
23403037.4319982
 10
75761792.176
 20
23402983.6239982
 10
75761756.0680001
 20
23402935.8159981
 10
75761713.468
 20
23402884.3959982
 10
75761688.0040001
 20
23402880.0039982
 10
75761662.6960001
 20
23402866.3839981
 10
75761609.8
 20
23402838.0639981
 10
75761556.8320002
 20
23402809.8759982
 10
75761503.7920001
 20
23402781.8199982
 10
75761450.6920002
 20
23402753.8959981
 10
75761397.508
 20
23402726.1159981
 10
75761344.2640001
 20
23402698.4679981
 10
75761290.936
 20
23402670.9639982
 10
75761237.5480001
 20
23402643.5799981
 10
75761184.088
 20
23402616.3519982
 10
75761130.5680001
 20
23402589.2439982
 10
75761076.952
 20
23402562.2799982
 10
75761023.288
 20
23402535.4599981
 10
75760969.552
 20
23402508.7719981
 10
75760915.744
 20
23402482.2159981
 10
75760861.8640001
 20
23402455.8039983
 10
75760807.9240001
 20
23402429.5239981
 10
75760753.9240001
 20
23402403.3879982
 10
75760699.8400001
 20
23402377.3839982
 10
75760645.7080002
 20
23402351.5239981
 10
75760591.5040001
 20
23402325.8079982
 10
75760537.228
 20
23402300.2239982
 10
75760482.8920001
 20
23402274.7719981
 10
75760428.4840001
 20
23402249.4759982
 10
75760374.0160001
 20
23402224.2999982
 10
75760319.4880001
 20
23402199.2799982
 10
75760264.9000002
 20
23402174.3919981
 10
75760210.2400001
 20
23402149.6359983
 10
75760155.52
 20
23402125.0359981
 10
75760100.7280001
 20
23402100.5679982
 10
75760088.5120002
 20
23402095.1559982
 10
75760045.8880001
 20
23402076.2439981
 10
75759990.976
 20
23402052.051998
 10
75759936.0040001
 20
23402028.0039982
 10
75759684.0040001
 20
23401920.0039983
 10
75758832.0040001
 20
23401524.0039982
 10
75758794.9360001
 20
23401512.5439983
 10
75758735.6800002
 20
23401503.7479982
 10
75758675.8120001
 20
23401506.0279983
 10
75758617.384
 20
23401519.2999981
 10
75758562.4000002
 20
23401543.1199981
 10
75758512.7440001
 20
23401576.6479982
 10
75758470.132
 20
23401618.7559981
 10
75758436.0040001
 20
23401668.0039982
 10
75757973.38
 20
23402624.799998
 10
75757908.004
 20
23402760.0039982
 10
75757892.4160001
 20
23402791.3839981
 10
75757865.4880002
 20
23402844.9999982
 10
75757838.2480002
 20
23402898.4599983
 10
75757810.7080002
 20
23402951.7639982
 10
75757782.856
 20
23403004.9119981
 10
75757754.704
 20
23403057.8919982
 10
75757726.2520001
 20
23403110.7159981
 10
75757697.4880001
 20
23403163.3839981
 10
75757668.4360001
 20
23403215.8719981
 10
75757639.0840001
 20
23403268.2039981
 10
75757609.42
 20
23403320.3559981
 10
75757579.468
 20
23403372.3519981
 10
75757549.216
 20
23403424.1679981
 10
75757518.6640002
 20
23403475.8039982
 10
75757487.8240001
 20
23403527.2719981
 10
75757456.6960001
 20
23403578.5599981
 10
75757425.2560001
 20
23403629.6679982
 10
75757393.5400002
 20
23403680.5959982
 10
75757361.524
 20
23403731.3439981
 10
75757329.2200002
 20
23403781.8999983
 10
75757296.6400001
 20
23403832.2759982
 10
75757263.7480002
 20
23403882.4599982
 10
75757260.0640001
 20
23403888.0519981
 10
75757230.592
 20
23403932.4759982
 10
75757197.1360001
 20
23403982.2759982
 10
75757163.4040001
 20
23404031.8959982
 10
75757129.384
 20
23404081.3239982
 10
75757095.0880001
 20
23404130.5479981
 10
75757060.5040001
 20
23404179.5799981
 10
75757025.6440001
 20
23404228.4199982
 10
75756990.496
 20
23404277.0439982
 10
75756955.0840002
 20
23404325.4759982
 10
75756919.384
 20
23404373.7039981
 10
75756883.4080001
 20
23404421.7399982
 10
75756847.1680001
 20
23404469.5359982
 10
75756810.6520002
 20
23404517.1519981
 10
75756773.8600001
 20
23404564.5399983
 10
75756736.7920001
 20
23404611.7359982
 10
75756699.4720001
 20
23404658.703998
 10
75756661.8640001
 20
23404705.4559983
 10
75756624.004
 20
23404752.0039981
 10
75756600.5440001
 20
23404793.5479982
 10
75756578.9560002
 20
23404849.4799982
 10
75756566.6680001
 20
23404908.1239983
 10
75756564.0040001
 20
23404968.0039982
 10
75756568.1920002
 20
23405013.2319981
 10
75756567.7720001
 20
23405073.1959982
 10
75756560.6440001
 20
23405132.7399982
 10
75756546.892
 20
23405191.107998
 10
75756520.7680001
 20
23405259.6159981
 10
75756500.26
 20
23405301.3999983
 10
75756483.1840001
 20
23405328.1119982
 10
75756482.98
 20
23405328.4599981
 10
75756467.98
 20
23405351.9439981
 10
75756430.228
 20
23405398.5399982
 10
75756387.496
 20
23405440.6119982
 10
75756340.3120001
 20
23405477.6319982
 10
75756289.288
 20
23405509.1199981
 10
75756235.0480001
 20
23405534.7039981
 10
75756178.2760001
 20
23405554.0359982
 10
75756119.704
 20
23405566.8759982
 10
75756060.052
 20
23405573.079998
 10
75756000.0880001
 20
23405572.551998
 10
75755940.5440001
 20
23405565.3039982
 10
75755882.2120001
 20
23405551.4199982
 10
75755825.8
 20
23405531.0799981
 10
75755772.0160001
 20
23405504.5719983
 10
75755721.5440001
 20
23405472.1839981
 10
75755675.02
 20
23405434.3359982
 10
75755633.0440001
 20
23405391.519998
 10
75755608.9840001
 20
23405360.7159982
 10
75755608.6840001
 20
23405360.3439981
 10
75755564.7280001
 20
23405293.1679983
 10
75755539.2640001
 20
23405238.8679981
 10
75755520.052
 20
23405182.0599981
 10
75755507.3320001
 20
23405123.4639981
 10
75755501.2480002
 20
23405063.7999981
 10
75755501.9080001
 20
23405003.8359982
 10
75755508.3040002
 20
23404952.1759981
 10
75755523.268
 20
23404886.0079981
 10
75755543.716
 20
23404829.6319981
 10
75755570.356
 20
23404775.9199982
 10
75755602.84
 20
23404725.5079982
 10
75755640.7840001
 20
23404679.0559982
 10
75755683.6840001
 20
23404637.1639982
 10
75755731.024
 20
23404600.3359982
 10
75755782.1800001
 20
23404569.051998
 10
75755836.5280001
 20
23404543.7079982
 10
75755893.384
 20
23404524.6039981
 10
75755952.0040001
 20
23404512.0039981
 10
75755973.796
 20
23404505.2239983
 10
75756028.3600002
 20
23404480.4679981
 10
75756077.6320001
 20
23404446.3759983
 10
75756127.0000002
 20
23404396.4079981
 10
75756167.3920001
 20
23404352.0439982
 10
75756207.412
 20
23404307.343998
 10
75756247.024
 20
23404262.2839982
 10
75756286.2760002
 20
23404216.8999983
 10
75756325.108
 20
23404171.1799982
 10
75756363.5560001
 20
23404125.0999982
 10
75756401.5960001
 20
23404078.6959982
 10
75756439.24
 20
23404031.9679981
 10
75756476.4760001
 20
23403984.9279983
 10
75756513.2920001
 20
23403937.5639982
 10
75756527.7640001
 20
23403918.6039982
 10
75756549.712
 20
23403889.8639982
 10
75756585.7
 20
23403841.8639982
 10
75756621.2800001
 20
23403793.5519981
 10
75756656.452
 20
23403744.9399981
 10
75756691.1800002
 20
23403696.0159982
 10
75756725.5000001
 20
23403646.7919982
 10
75756759.3880001
 20
23403597.2799982
 10
75756792.844
 20
23403547.4799982
 10
75756825.8680001
 20
23403497.3799982
 10
75756858.4480001
 20
23403447.0039982
 10
75756890.608
 20
23403396.339998
 10
75756922.3120001
 20
23403345.411998
 10
75756953.5840002
 20
23403294.2079981
 10
75756984.4000002
 20
23403242.7159981
 10
75757014.784
 20
23403190.9839981
 10
75757044.7120001
 20
23403138.9759982
 10
75757074.1840001
 20
23403086.715998
 10
75757103.2
 20
23403034.1919982
 10
75757131.772
 20
23402981.4399981
 10
75757159.8760001
 20
23402928.423998
 10
75757187.524
 20
23402875.1799983
 10
75757214.7160001
 20
23402821.6959981
 10
75757241.4280001
 20
23402767.9719982
 10
75757267.6840001
 20
23402714.0199982
 10
75757293.4720002
 20
23402659.8399981
 10
75757318.7920002
 20
23402605.4439982
 10
75757343.6440001
 20
23402550.8319981
 10
75757368.0040001
 20
23402496.0039982
 10
75757416.7000001
 20
23402394.1959982
 10
75757896.004
 20
23401392.0039982
 10
75757913.9320001
 20
23401345.3479982
 10
75757924.6240002
 20
23401286.4159982
 10
75757923.1240002
 20
23401226.5359983
 10
75757909.4920001
 20
23401168.215998
 10
75757884.3040001
 20
23401113.8799981
 10
75757848.6160001
 20
23401065.7839982
 10
75757803.8800001
 20
23401025.9319981
 10
75757752.0040001
 20
23400996.0039983
 10
75757476.004
 20
23400864.0039982
 10
75756648.0040001
 20
23400468.0039982
 10
75756546.3880002
 20
23400420.5079982
 10
75755544.004
 20
23399952.0039982
 10
75755485.7200001
 20
23399930.3319981
 10
75755426.524
 20
23399921.1759982
 10
75755366.6800001
 20
23399923.8759982
 10
75755308.564
 20
23399938.3479982
 10
75755254.4200001
 20
23399963.9799982
 10
75755206.4080001
 20
23399999.7999981
 10
75755166.412
 20
23400044.4039982
 10
75755136.0040001
 20
23400096.0039982
 10
75755132.968
 20
23400102.8199981
 10
75755129.884
 20
23400109.7319981
 10
75755105.1880001
 20
23400164.4159982
 10
75755080.0720001
 20
23400218.8959982
 10
75755054.536
 20
23400273.1959982
 10
75755028.58
 20
23400327.2919982
 10
75755002.204
 20
23400381.1839982
 10
75754975.4080001
 20
23400434.8599982
 10
75754948.204
 20
23400488.3439981
 10
75754920.58
 20
23400541.5999982
 10
75754892.548
 20
23400594.6519982
 10
75754864.108
 20
23400647.4879982
 10
75754835.26
 20
23400700.0959982
 10
75754806.004
 20
23400752.4759982
 10
75754776.3400001
 20
23400804.6279982
 10
75754746.2680001
 20
23400856.551998
 10
75754715.812
 20
23400908.2479982
 10
75754684.9360001
 20
23400959.6919982
 10
75754653.676
 20
23401010.9079981
 10
75754650.3640001
 20
23401016.2239982
 10
75754647.064
 20
23401021.5519981
 10
75755976.0040001
 20
23401692.0039981
 10
75755003.992
 20
23402892.0039981
 10
75754932.1000001
 20
23403024.051998
 10
75754218.052
 20
23404335.2919982
 10
75754133.8240001
 20
23404489.9599982
 10
75753684.0040001
 20
23405315.9919981
 10
75753972.0040001
 20
23406288.0039982
 10
75754692.232
 20
23406551.3679982
 10
75754956.0040001
 20
23406648.0039982
 10
75755580.0040001
 20
23406876.0039982
 10
75757944.0160001
 20
23406900.0039982
 10
75758844.0040001
 20
23407440.0039981
 10
75758856.6040001
 20
23407416.1719981
 10
75758888.2240001
 20
23407365.1839981
 10
75758920.024
 20
23407314.3039982
 10
75758952.0040001
 20
23407263.5319981
 10
75758984.1400001
 20
23407212.8559981
 10
75759016.4560002
 20
23407162.3119982
 10
75759024.6640002
 20
23407149.5559982
 10
75759048.9280002
 20
23407111.8639982
 10
75759081.58
 20
23407061.5239981
 10
75759114.4000002
 20
23407011.2919982
 10
75759147.3880002
 20
23406961.1799983
 10
75759180.5440001
 20
23406911.1759982
 10
75759213.868
 20
23406861.2799982
 10
75759247.3480001
 20
23406811.4919981
 10
75759281.008
 20
23406761.8239981
 10
75759314.8360001
 20
23406712.2759982
 10
75759348.8200001
 20
23406662.8239982
 10
75759382.9720001
 20
23406613.479998
 10
75759769.552
 20
23406083.8599982
  0
LWPOLYLINE
  5
20097
  8
0
100
AcDbEntity
100
AcDbPolyline
 70
0
 90
33
 62
7
370
0
 10
75757248.0040001
 20
23398404.0039982
 10
75756141.6280001
 20
23397874.8639981
 10
75755664.0040001
 20
23398872.003998
 10
75755639.0320001
 20
23398926.435998
 10
75755625.94
 20
23398984.8759981
 10
75755625.316
 20
23399044.7559982
 10
75755637.172
 20
23399103.4839983
 10
75755661.0040001
 20
23399158.4079982
 10
75755695.768
 20
23399207.1879981
 10
75755739.9160001
 20
23399247.6399982
 10
75755791.5400002
 20
23399278.023998
 10
75756972.004
 20
23399832.0039982
 10
75757788.0040001
 20
23400204.0039982
 10
75758328.232
 20
23400467.5479981
 10
75758593.4920001
 20
23400596.9559982
 10
75759168.0040001
 20
23400876.0039981
 10
75759744.0040001
 20
23401152.0039982
 10
75759798.3040001
 20
23401177.5279982
 10
75759852.856
 20
23401202.4999982
 10
75759907.6360002
 20
23401226.979998
 10
75759962.6680001
 20
23401250.8959981
 10
75760017.9160001
 20
23401274.2839982
 10
75760073.4040001
 20
23401297.1319981
 10
75760129.0960001
 20
23401319.439998
 10
75760185.0160001
 20
23401341.1959981
 10
75760224.0040001
 20
23401356.0039982
 10
75760868.1400001
 20
23401664.0679982
 10
75761508.004
 20
23400336.0039982
 10
75760247.8
 20
23399700.4239982
 10
75760128.0040001
 20
23399640.0039981
 10
75759357.3400001
 20
23399261.4399981
 10
75758076.0040001
 20
23398632.0039981
 10
75757248.0040001
 20
23398404.0039982
  0
LWPOLYLINE
  5
20098
  8
0
100
AcDbEntity
100
AcDbPolyline
 70
0
 90
42
 62
7
370
0
 10
75753278.8360001
 20
23398842.2079981
 10
75753240.316
 20
23398823.3919982
 10
75752592.0040001
 20
23400228.0039982
 10
75753991.1800002
 20
23400789.2799982
 10
75754023.4240001
 20
23400738.687998
 10
75754055.2480002
 20
23400687.8199982
 10
75754086.6400001
 20
23400636.6879981
 10
75754117.6120001
 20
23400585.3039982
 10
75754148.1640001
 20
23400533.6679983
 10
75754178.284
 20
23400481.7679982
 10
75754207.9720001
 20
23400429.6279982
 10
75754237.228
 20
23400377.2479983
 10
75754266.052
 20
23400324.6159981
 10
75754294.4320001
 20
23400271.7559982
 10
75754322.3920001
 20
23400218.6679982
 10
75754349.884
 20
23400165.3399981
 10
75754376.9440001
 20
23400111.7839981
 10
75754403.56
 20
23400058.0119982
 10
75754429.7200001
 20
23400004.0239981
 10
75754455.4480001
 20
23399949.8079982
 10
75754480.7200001
 20
23399895.3999982
 10
75754505.536
 20
23399840.7639982
 10
75754529.8960001
 20
23399785.9359982
 10
75754532.9560001
 20
23399778.9639982
 10
75754536.004
 20
23399772.0039982
 10
75754549.0960001
 20
23399733.8559981
 10
75754558.6240001
 20
23399674.7199982
 10
75754555.9000002
 20
23399614.8759982
 10
75754541.08
 20
23399556.8439981
 10
75754514.7520001
 20
23399503.0359981
 10
75754478.0560001
 20
23399455.7079982
 10
75754432.5160001
 20
23399416.8159981
 10
75754380.0040001
 20
23399388.0039982
 10
75753672.0040001
 20
23399040.0039982
 10
75753654.1120001
 20
23399030.7999981
 10
75753600.7240001
 20
23399003.4039982
 10
75753547.2520001
 20
23398976.1759981
 10
75753493.7200002
 20
23398949.0919981
 10
75753440.104
 20
23398922.1519982
 10
75753386.4160002
 20
23398895.3559981
 10
75753332.6680001
 20
23398868.7039981
 10
75753278.8360001
 20
23398842.2079981
  0
LWPOLYLINE
  5
20099
  8
0
100
AcDbEntity
100
AcDbPolyline
 70
0
 90
18
 62
7
370
0
 10
75754431.7120001
 20
23391021.6159982
 10
75754417.912
 20
23391000.1959981
 10
75754385.8
 20
23390949.4959981
 10
75754354.108
 20
23390898.5559982
 10
75754322.788
 20
23390847.3759982
 10
75754291.8760001
 20
23390795.9559982
 10
75754261.3480001
 20
23390744.3079982
 10
75754231.2280001
 20
23390692.4079981
 10
75754201.504
 20
23390640.2919982
 10
75754172.176
 20
23390587.9479982
 10
75754143.2680001
 20
23390535.3759982
 10
75754114.744
 20
23390482.5879982
 10
75754086.6400001
 20
23390429.5719982
 10
75754058.9440002
 20
23390376.351998
 10
75754041.1120001
 20
23390341.4439982
 10
75752760.004
 20
23390976.0039982
 10
75753198.052
 20
23391896.5359981
 10
75754431.7120001
 20
23391021.6159982
  0
LWPOLYLINE
  5
2009A
  8
0
100
AcDbEntity
100
AcDbPolyline
 70
0
 90
8
 62
7
370
0
 10
75754362.4360001
 20
23412024.0039981
 10
75754379.788
 20
23411376.0039981
 10
75753156.004
 20
23411376.0039982
 10
75753164.6680001
 20
23412372.0879981
 10
75753168.004
 20
23412755.9919982
 10
75753648.0040001
 20
23412755.9919981
 10
75753660.004
 20
23412024.0039981
 10
75754362.4360001
 20
23412024.0039981
  0
LWPOLYLINE
  5
2009B
  8
0
100
AcDbEntity
100
AcDbPolyline
 70
0
 90
19
 62
7
370
0
 10
75754880.176
 20
23391639.7839981
 10
75754838.2480001
 20
23391593.8359982
 10
75754798.7800001
 20
23391548.6559981
 10
75754760.26
 20
23391502.6599981
 10
75754722.676
 20
23391455.8719981
 10
75754686.1000001
 20
23391408.3279982
 10
75754650.508
 20
23391360.0159982
 10
75754615.9360001
 20
23391310.9839981
 10
75754582.372
 20
23391261.2559982
 10
75754549.8520001
 20
23391210.8199983
 10
75754518.4000001
 20
23391159.7239981
 10
75754483.2640001
 20
23391100.8279981
 10
75754450.396
 20
23391050.6439981
 10
75754431.7120001
 20
23391021.6159982
 10
75753198.052
 20
23391896.5359981
 10
75753024.004
 20
23392020.0039982
 10
75753733.552
 20
23392509.7719981
 10
75753887.9920001
 20
23392620.0039981
 10
75754880.176
 20
23391639.7839981
  0
LWPOLYLINE
  5
2009C
  8
0
100
AcDbEntity
100
AcDbPolyline
 70
0
 90
5
 62
7
370
0
 10
75754212.5440001
 20
23395042.8759982
 10
75753549.9880001
 20
23394724.3479982
 10
75753084.0040001
 20
23395728.0039983
 10
75753729.0040001
 20
23396081.4999981
 10
75754212.5440001
 20
23395042.8759982
  0
LWPOLYLINE
  5
2009D
  8
0
100
AcDbEntity
100
AcDbPolyline
 70
0
 90
7
 62
7
370
0
 10
75754380.0040001
 20
23392956.0039982
 10
75753887.9920001
 20
23392620.0039981
 10
75753733.552
 20
23392509.7719981
 10
75753130.1680001
 20
23393775.9399981
 10
75753276.0040001
 20
23393844.0039982
 10
75753837.1000001
 20
23394114.0279982
 10
75754380.0040001
 20
23392956.0039982
  0
LWPOLYLINE
  5
2009E
  8
0
100
AcDbEntity
100
AcDbPolyline
 70
0
 90
5
 62
7
370
0
 10
75754860.7120001
 20
23395354.5039982
 10
75754212.5440001
 20
23395042.8759982
 10
75753729.0040001
 20
23396081.4999981
 10
75754332.0040001
 20
23396412.0039982
 10
75754860.7120001
 20
23395354.5039982
  0
LWPOLYLINE
  5
2009F
  8
0
100
AcDbEntity
100
AcDbPolyline
 70
0
 90
6
 62
7
370
0
 10
75755051.4880001
 20
23393329.0479982
 10
75754713.1720001
 20
23393141.1039981
 10
75754380.0040001
 20
23392956.0039982
 10
75753837.1000001
 20
23394114.0279982
 10
75754509.3520001
 20
23394437.5479981
 10
75755051.4880001
 20
23393329.0479982
  0
LWPOLYLINE
  5
200A0
  8
0
100
AcDbEntity
100
AcDbPolyline
 70
0
 90
19
 62
7
370
0
 10
75755496.0040001
 20
23392152.0039981
 10
75755447.9440002
 20
23392116.0879982
 10
75755400.0040001
 20
23392080.0039982
 10
75755379.232
 20
23392066.1319981
 10
75755329.8280001
 20
23392032.0879981
 10
75755281.144
 20
23391997.0119982
 10
75755233.204
 20
23391960.9399981
 10
75755186.0200001
 20
23391923.8839981
 10
75755139.616
 20
23391885.8439981
 10
75755094.0160002
 20
23391846.8559981
 10
75755049.2200002
 20
23391806.9199981
 10
75755005.2760001
 20
23391766.0839982
 10
75754962.1960001
 20
23391724.3359982
 10
75754919.98
 20
23391681.6999982
 10
75754880.176
 20
23391639.7839981
 10
75753887.9920001
 20
23392620.0039981
 10
75754380.0040001
 20
23392956.0039982
 10
75754713.1720001
 20
23393141.1039981
 10
75755496.0040001
 20
23392152.0039981
  0
LWPOLYLINE
  5
200A1
  8
0
100
AcDbEntity
100
AcDbPolyline
 70
0
 90
21
 62
7
370
0
 10
75755520.0040001
 20
23389176.0039982
 10
75755326.756
 20
23388516.3759982
 10
75755288.296
 20
23388385.1199981
 10
75754176.0040001
 20
23388720.0039981
 10
75754189.7320001
 20
23388766.5039982
 10
75754206.8320001
 20
23388824.007998
 10
75754224.052
 20
23388881.4879982
 10
75754241.3920001
 20
23388938.9319982
 10
75754258.8640001
 20
23388996.3279981
 10
75754276.4440001
 20
23389053.6999981
 10
75754294.1440001
 20
23389111.0119982
 10
75754311.976
 20
23389168.3119982
 10
75754329.9280001
 20
23389225.5639982
 10
75754348.0000002
 20
23389282.7919983
 10
75754356.0040001
 20
23389308.0039982
 10
75754372.3600001
 20
23389365.7359982
 10
75754389.508
 20
23389423.2279982
 10
75754407.4360001
 20
23389480.4919981
 10
75754426.1320001
 20
23389537.5039982
 10
75754438.1920002
 20
23389572.6279982
 10
75755520.0040001
 20
23389176.0039982
  0
LWPOLYLINE
  5
200A2
  8
0
100
AcDbEntity
100
AcDbPolyline
 70
0
 90
11
 62
7
370
0
 10
75754362.4360001
 20
23412024.0039981
 10
75754356.0040001
 20
23412264.0039982
 10
75754716.0040001
 20
23412264.0039981
 10
75754728.0040001
 20
23412396.0039981
 10
75755916.0040001
 20
23412396.0039982
 10
75755940.0040001
 20
23412288.0039981
 10
75756276.0040001
 20
23412288.0039982
 10
75756324.0040001
 20
23410944.0039982
 10
75754392.0040001
 20
23410920.0039981
 10
75754379.788
 20
23411376.0039981
 10
75754362.4360001
 20
23412024.0039981
  0
LWPOLYLINE
  5
200A3
  8
0
100
AcDbEntity
100
AcDbPolyline
 70
0
 90
5
 62
7
370
0
 10
75755533.0960001
 20
23395677.7599981
 10
75754860.7120001
 20
23395354.5039982
 10
75754332.0040001
 20
23396412.0039982
 10
75755026.5160001
 20
23396739.1719981
 10
75755533.0960001
 20
23395677.7599981
  0
LWPOLYLINE
  5
200A4
  8
0
100
AcDbEntity
100
AcDbPolyline
 70
0
 90
22
 62
7
370
0
 10
75755821.3600001
 20
23389823.3679982
 10
75755664.0040001
 20
23389488.0039981
 10
75755520.0040001
 20
23389176.0039982
 10
75754438.1920002
 20
23389572.6279982
 10
75754445.608
 20
23389594.2519983
 10
75754465.84
 20
23389650.7359982
 10
75754486.852
 20
23389706.9319983
 10
75754508.62
 20
23389762.8399982
 10
75754531.1560001
 20
23389818.4479982
 10
75754554.4360001
 20
23389873.7559981
 10
75754578.4720002
 20
23389928.7279982
 10
75754603.24
 20
23389983.3759982
 10
75754628.7640001
 20
23390037.6759981
 10
75754655.0200001
 20
23390091.6279981
 10
75754681.996
 20
23390145.2199983
 10
75754709.704
 20
23390198.4399981
 10
75754738.1440001
 20
23390251.2759983
 10
75754767.2800001
 20
23390303.7159983
 10
75754797.1360002
 20
23390355.7599982
 10
75754827.688
 20
23390407.3959981
 10
75754845.94
 20
23390437.2639981
 10
75755821.3600001
 20
23389823.3679982
  0
LWPOLYLINE
  5
200A5
  8
0
100
AcDbEntity
100
AcDbPolyline
 70
0
 90
6
 62
7
370
0
 10
75755676.0040001
 20
23393676.0039981
 10
75755568.0040001
 20
23393616.0039981
 10
75755051.4880001
 20
23393329.0479982
 10
75754509.3520001
 20
23394437.5479981
 10
75755196.0040001
 20
23394768.0039982
 10
75755676.0040001
 20
23393676.0039981
  0
LWPOLYLINE
  5
200A6
  8
0
100
AcDbEntity
100
AcDbPolyline
 70
0
 90
18
 62
7
370
0
 10
75756120.0400002
 20
23392559.9439982
 10
75756097.66
 20
23392546.9599982
 10
75756046.024
 20
23392516.3959981
 10
75755994.6520001
 20
23392485.3879982
 10
75755943.5440001
 20
23392453.9479981
 10
75755892.7120001
 20
23392422.0879981
 10
75755842.1560001
 20
23392389.7839982
 10
75755791.8760001
 20
23392357.047998
 10
75755741.872
 20
23392323.8799981
 10
75755692.1440001
 20
23392290.2919982
 10
75755642.716
 20
23392256.2959981
 10
75755593.5760001
 20
23392221.8679982
 10
75755544.7360001
 20
23392187.019998
 10
75755496.0040001
 20
23392152.0039981
 10
75754713.1720001
 20
23393141.1039981
 10
75755051.4880001
 20
23393329.0479982
 10
75755568.0040001
 20
23393616.0039981
 10
75756120.0400002
 20
23392559.9439982
  0
LWPOLYLINE
  5
200A7
  8
0
100
AcDbEntity
100
AcDbPolyline
 70
0
 90
28
 62
7
370
0
 10
75756396.004
 20
23390256.0039982
 10
75755844.004
 20
23389872.0039982
 10
75755821.3600001
 20
23389823.3679982
 10
75754845.94
 20
23390437.2639981
 10
75754858.9600001
 20
23390458.5999982
 10
75754890.9160002
 20
23390509.3959981
 10
75754923.5560001
 20
23390559.7359982
 10
75754956.88
 20
23390609.6319981
 10
75754990.8760001
 20
23390659.0719981
 10
75755025.5440001
 20
23390708.0319982
 10
75755060.872
 20
23390756.5359981
 10
75755096.8480001
 20
23390804.5479981
 10
75755133.4840001
 20
23390852.0679982
 10
75755170.7680001
 20
23390899.0719982
 10
75755208.676
 20
23390945.5839982
 10
75755247.232
 20
23390991.5679983
 10
75755286.3760001
 20
23391037.0239981
 10
75755328.0040001
 20
23391084.0039981
 10
75755375.1640002
 20
23391120.9519981
 10
75755428.648
 20
23391147.939998
 10
75755486.356
 20
23391163.9599982
 10
75755546.104
 20
23391168.3999983
 10
75755605.552
 20
23391161.0799981
 10
75755662.4320001
 20
23391142.2879981
 10
75755714.536
 20
23391112.7199982
 10
75755759.8600002
 20
23391073.5639981
 10
75755772.0040001
 20
23391060.0039982
 10
75756396.004
 20
23390256.0039982
  0
LWPOLYLINE
  5
200A8
  8
0
100
AcDbEntity
100
AcDbPolyline
 70
0
 90
13
 62
7
370
0
 10
75756012.004
 20
23395908.0039982
 10
75755533.0960001
 20
23395677.7599981
 10
75755026.5160001
 20
23396739.1719981
 10
75755784.004
 20
23397096.0159983
 10
75756156.0040001
 20
23396304.0039982
 10
75756176.536
 20
23396247.7359982
 10
75756185.2240001
 20
23396188.4799981
 10
75756181.672
 20
23396128.6839982
 10
75756166.0840001
 20
23396070.8559981
 10
75756139.0720001
 20
23396017.4079982
 10
75756101.7640002
 20
23395970.5479982
 10
75756055.7080002
 20
23395932.2439981
 10
75756012.004
 20
23395908.0039982
  0
LWPOLYLINE
  5
200A9
  8
0
100
AcDbEntity
100
AcDbPolyline
 70
0
 90
6
 62
7
370
0
 10
75755196.0040001
 20
23394768.0039982
 10
75755820.0040001
 20
23395068.0039981
 10
75756350.3320001
 20
23393970.6639982
 10
75756286.744
 20
23393942.8839981
 10
75755676.0040001
 20
23393676.0039981
 10
75755196.0040001
 20
23394768.0039982
  0
LWPOLYLINE
  5
200AA
  8
0
100
AcDbEntity
100
AcDbPolyline
 70
0
 90
18
 62
7
370
0
 10
75756731.5960002
 20
23388780.2679982
 10
75756716.8480001
 20
23388757.5039982
 10
75756685.8400001
 20
23388706.1439981
 10
75756656.4640001
 20
23388653.8239982
 10
75756628.756
 20
23388600.6159982
 10
75756602.7520001
 20
23388546.5439982
 10
75756578.4760001
 20
23388491.6799982
 10
75756555.94
 20
23388436.0719982
 10
75756535.1800001
 20
23388379.7679982
 10
75756516.2200002
 20
23388322.8639982
 10
75756499.0600001
 20
23388265.3719981
 10
75756483.7360002
 20
23388207.3639982
 10
75756480.0040001
 20
23388192.0039981
 10
75756455.2240001
 20
23388144.2679982
 10
75755326.756
 20
23388516.3759982
 10
75755520.0040001
 20
23389176.0039982
 10
75755664.0040001
 20
23389488.0039981
 10
75756731.5960002
 20
23388780.2679982
  0
LWPOLYLINE
  5
200AB
  8
0
100
AcDbEntity
100
AcDbPolyline
 70
0
 90
20
 62
7
370
0
 10
75756803.5360001
 20
23392908.9279983
 10
75756794.1400001
 20
23392904.7759982
 10
75756791.008
 20
23392903.3959982
 10
75756736.3120001
 20
23392878.7359981
 10
75756681.8320002
 20
23392853.5959982
 10
75756627.5680002
 20
23392827.9879982
 10
75756573.5200001
 20
23392801.9359981
 10
75756519.7000001
 20
23392775.4159982
 10
75756466.108
 20
23392748.4399981
 10
75756412.744
 20
23392721.0079981
 10
75756359.62
 20
23392693.1199981
 10
75756306.7360002
 20
23392664.7759982
 10
75756254.092
 20
23392635.9879982
 10
75756201.688
 20
23392606.7559981
 10
75756149.5480001
 20
23392577.0799982
 10
75756120.0400002
 20
23392559.9439982
 10
75755568.0040001
 20
23393616.0039981
 10
75755676.0040001
 20
23393676.0039981
 10
75756286.744
 20
23393942.8839981
 10
75756803.5360001
 20
23392908.9279983
  0
LWPOLYLINE
  5
200AC
  8
0
100
AcDbEntity
100
AcDbPolyline
 70
0
 90
23
 62
7
370
0
 10
75756731.5960002
 20
23388780.2679982
 10
75755664.0040001
 20
23389488.0039981
 10
75755821.3600001
 20
23389823.3679982
 10
75755844.004
 20
23389872.0039982
 10
75756396.004
 20
23390256.0039982
 10
75757056.0040001
 20
23389584.0039982
 10
75757096.6120001
 20
23389539.9759981
 10
75757127.1520001
 20
23389488.4719982
 10
75757146.268
 20
23389431.7119982
 10
75757153.1320001
 20
23389372.2159981
 10
75757147.4200001
 20
23389312.5999982
 10
75757129.408
 20
23389255.4799981
 10
75757099.8760002
 20
23389203.3879982
 10
75757060.12
 20
23389158.5919982
 10
75757020.0040001
 20
23389128.0039982
 10
75756977.1040001
 20
23389086.051998
 10
75756935.56
 20
23389042.7679982
 10
75756895.408
 20
23388998.1879981
 10
75756856.6840001
 20
23388952.3599983
 10
75756819.424
 20
23388905.3319982
 10
75756783.688
 20
23388857.1519982
 10
75756749.4760001
 20
23388807.8559982
 10
75756731.5960002
 20
23388780.2679982
  0
LWPOLYLINE
  5
200AD
  8
0
100
AcDbEntity
100
AcDbPolyline
 70
0
 90
23
 62
7
370
0
 10
75756708.004
 20
23395164.0039982
 10
75756804.004
 20
23394960.0039982
 10
75756912.004
 20
23394732.0039981
 10
75756943.288
 20
23394680.8359982
 10
75756969.496
 20
23394626.8839981
 10
75756990.4000001
 20
23394570.6639982
 10
75756996.0040001
 20
23394552.0039981
 10
75757019.608
 20
23394496.8399981
 10
75757043.884
 20
23394441.9759982
 10
75757068.8200002
 20
23394387.3999983
 10
75757094.44
 20
23394333.1479981
 10
75757109.3320001
 20
23394302.607998
 10
75756350.3320001
 20
23393970.6639982
 10
75755820.0040001
 20
23395068.0039981
 10
75756300.0040001
 20
23395296.0039982
 10
75756354.4360001
 20
23395320.9759982
 10
75756412.8760001
 20
23395334.0679982
 10
75756472.7680001
 20
23395334.6919983
 10
75756531.4720001
 20
23395322.8359982
 10
75756586.408
 20
23395299.0039981
 10
75756635.188
 20
23395264.2399982
 10
75756675.6520001
 20
23395220.0919982
 10
75756708.004
 20
23395164.0039982
  0
LWPOLYLINE
  5
200AE
  8
0
100
AcDbEntity
100
AcDbPolyline
 70
0
 90
5
 62
7
370
0
 10
75756141.6280001
 20
23397874.8639981
 10
75757248.0040001
 20
23398404.0039982
 10
75757548.0040001
 20
23397744.0039982
 10
75756475.4920001
 20
23397177.8439981
 10
75756141.6280001
 20
23397874.8639981
  0
LWPOLYLINE
  5
200AF
  8
0
100
AcDbEntity
100
AcDbPolyline
 70
0
 90
28
 62
7
370
0
 10
75757598.9440001
 20
23391686.4999981
 10
75756697.84
 20
23390953.4919982
 10
75756276.0040001
 20
23391492.0039981
 10
75756243.9280002
 20
23391542.5839982
 10
75756222.6640002
 20
23391598.5879981
 10
75756213.1120001
 20
23391657.6999982
 10
75756215.6440001
 20
23391717.5559982
 10
75756230.1520001
 20
23391775.6719983
 10
75756256.0600001
 20
23391829.6839982
 10
75756292.2760001
 20
23391877.3719981
 10
75756337.384
 20
23391916.8039982
 10
75756342.6640002
 20
23391920.3799981
 10
75756348.0040001
 20
23391923.9919981
 10
75756399.4720002
 20
23391954.8319983
 10
75756451.2760001
 20
23391985.1079981
 10
75756503.3920001
 20
23392014.8319983
 10
75756555.8320001
 20
23392044.0039981
 10
75756608.5720001
 20
23392072.5999982
 10
75756661.6240002
 20
23392100.6439982
 10
75756714.9640001
 20
23392128.1119983
 10
75756768.5920001
 20
23392155.0039981
 10
75756822.5200001
 20
23392181.3199982
 10
75756876.7120001
 20
23392207.0719982
 10
75756931.1800002
 20
23392232.2359982
 10
75756985.9120001
 20
23392256.8119982
 10
75757040.9080001
 20
23392280.787998
 10
75757079.5120002
 20
23392297.1559981
 10
75757598.9440001
 20
23391686.4999981
  0
LWPOLYLINE
  5
200B0
  8
0
100
AcDbEntity
100
AcDbPolyline
 70
0
 90
31
 62
7
370
0
 10
75756803.5360001
 20
23392908.9279983
 10
75756286.744
 20
23393942.8839981
 10
75756350.3320001
 20
23393970.6639982
 10
75757109.3320001
 20
23394302.607998
 10
75757120.7200001
 20
23394279.2079982
 10
75757147.66
 20
23394225.5919981
 10
75757175.2480001
 20
23394172.3119982
 10
75757203.5080001
 20
23394119.3799981
 10
75757232.3800001
 20
23394066.7959982
 10
75757261.924
 20
23394014.5719982
 10
75757292.08
 20
23393962.7079983
 10
75757322.8960001
 20
23393911.2159981
 10
75757354.3360001
 20
23393860.1199981
 10
75757386.4000002
 20
23393809.4079981
 10
75757419.0760001
 20
23393759.0799981
 10
75757452.3760001
 20
23393709.1719981
 10
75757486.288
 20
23393659.6719982
 10
75757500.0040001
 20
23393640.0039981
 10
75757532.8
 20
23393589.8679982
 10
75757555.0000002
 20
23393534.2479982
 10
75757565.74
 20
23393475.3159981
 10
75757564.5760001
 20
23393415.4239981
 10
75757551.5560001
 20
23393356.9479982
 10
75757527.232
 20
23393302.2159981
 10
75757492.5280001
 20
23393253.3999982
 10
75757448.8360001
 20
23393212.4319981
 10
75757404.0040001
 20
23393184.0039982
 10
75757152.0040001
 20
23393064.0039982
 10
75756901.0120002
 20
23392951.3359983
 10
75756845.9080001
 20
23392927.5999982
 10
75756803.5360001
 20
23392908.9279983
  0
LWPOLYLINE
  5
200B1
  8
0
100
AcDbEntity
100
AcDbPolyline
 70
0
 90
6
 62
7
370
0
 10
75757548.0040001
 20
23397744.0039982
 10
75757768.7680001
 20
23397240.6519981
 10
75757848.0040001
 20
23397060.0039982
 10
75756790.8520001
 20
23396519.4519981
 10
75756475.4920001
 20
23397177.8439981
 10
75757548.0040001
 20
23397744.0039982
  0
LWPOLYLINE
  5
200B2
  8
0
100
AcDbEntity
100
AcDbPolyline
 70
0
 90
12
 62
7
370
0
 10
75757846.8640001
 20
23391395.0319981
 10
75758076.0040001
 20
23391132.0039983
 10
75757199.344
 20
23390375.3799982
 10
75757020.0040001
 20
23390568.0039981
 10
75757001.1400001
 20
23390594.7879981
 10
75756964.552
 20
23390642.3319982
 10
75756925.4200001
 20
23390687.8119982
 10
75756883.8640001
 20
23390731.0719982
 10
75756840.0040001
 20
23390772.0159982
 10
75756697.84
 20
23390953.4919982
 10
75757598.9440001
 20
23391686.4999981
 10
75757846.8640001
 20
23391395.0319981
  0
LWPOLYLINE
  5
200B3
  8
0
100
AcDbEntity
100
AcDbPolyline
 70
0
 90
6
 62
7
370
0
 10
75758160.0040001
 20
23396376.0039982
 10
75757140.0040001
 20
23395800.0039982
 10
75757032.004
 20
23396015.9919981
 10
75756790.8520001
 20
23396519.4519981
 10
75757848.0040001
 20
23397060.0039982
 10
75758160.0040001
 20
23396376.0039982
  0
LWPOLYLINE
  5
200B4
  8
0
100
AcDbEntity
100
AcDbPolyline
 70
0
 90
27
 62
7
370
0
 10
75758340.0040001
 20
23392632.0159981
 10
75758725.66
 20
23392165.3719981
 10
75757846.8640001
 20
23391395.0319981
 10
75757598.9440001
 20
23391686.4999981
 10
75757079.5120002
 20
23392297.1559981
 10
75757096.1560001
 20
23392304.2239983
 10
75757151.644
 20
23392327.0239981
 10
75757157.8240001
 20
23392329.5079981
 10
75757164.0040001
 20
23392332.0039981
 10
75757219.66
 20
23392354.4199982
 10
75757275.0400002
 20
23392377.5079981
 10
75757330.12
 20
23392401.2919982
 10
75757384.912
 20
23392425.7599982
 10
75757439.3800001
 20
23392450.8999983
 10
75757493.5600001
 20
23392476.6999982
 10
75757547.3920001
 20
23392503.1839981
 10
75757600.9000002
 20
23392530.3279981
 10
75757654.0720001
 20
23392558.1319981
 10
75757680.0040001
 20
23392572.0039982
 10
75757968.0040001
 20
23392704.0039981
 10
75758024.6560001
 20
23392723.5279981
 10
75758083.9000002
 20
23392732.4319982
 10
75758143.7800001
 20
23392730.4519981
 10
75758202.316
 20
23392717.6119981
 10
75758257.5400001
 20
23392694.3919983
 10
75758307.6280001
 20
23392661.4999982
 10
75758340.0040001
 20
23392632.0159981
  0
LWPOLYLINE
  5
200B5
  8
0
100
AcDbEntity
100
AcDbPolyline
 70
0
 90
14
 62
7
370
0
 10
75758160.0040001
 20
23396376.0039982
 10
75758227.7800001
 20
23396265.4119981
 10
75758616.0040001
 20
23395632.0039981
 10
75757500.0040001
 20
23395068.0039981
 10
75757490.8120001
 20
23395085.9199981
 10
75757463.6440001
 20
23395139.4159982
 10
75757436.8360001
 20
23395193.0919981
 10
75757410.3640001
 20
23395246.9359982
 10
75757384.2400001
 20
23395300.9479982
 10
75757358.4760001
 20
23395355.1399982
 10
75757333.0600001
 20
23395409.4879982
 10
75757308.0040001
 20
23395464.0039982
 10
75757140.0040001
 20
23395800.0039982
 10
75758160.0040001
 20
23396376.0039982
  0
LWPOLYLINE
  5
200B6
  8
0
100
AcDbEntity
100
AcDbPolyline
 70
0
 90
14
 62
7
370
0
 10
75757248.0040001
 20
23398404.0039982
 10
75758076.0040001
 20
23398632.0039981
 10
75759047.8600001
 20
23397792.1359982
 10
75759029.968
 20
23397774.8919982
 10
75758991.6400001
 20
23397728.7759982
 10
75758958.6280001
 20
23397678.7119981
 10
75758931.3520001
 20
23397625.2999982
 10
75758910.1240001
 20
23397569.2119982
 10
75758895.2200002
 20
23397511.1319981
 10
75758886.8200001
 20
23397451.7439982
 10
75758885.0200001
 20
23397391.8039982
 10
75757768.7680001
 20
23397240.6519981
 10
75757548.0040001
 20
23397744.0039982
 10
75757248.0040001
 20
23398404.0039982
  0
LWPOLYLINE
  5
200B7
  8
0
100
AcDbEntity
100
AcDbPolyline
 70
0
 90
7
 62
7
370
0
 10
75758076.0040001
 20
23391132.0039983
 10
75758387.4280002
 20
23390759.5239981
 10
75758580.5560002
 20
23390532.4719983
 10
75757752.0040001
 20
23389824.0039981
 10
75757668.0040001
 20
23389872.0039982
 10
75757199.344
 20
23390375.3799982
 10
75758076.0040001
 20
23391132.0039983
  0
LWPOLYLINE
  5
200B8
  8
0
100
AcDbEntity
100
AcDbPolyline
 70
0
 90
17
 62
7
370
0
 10
75758939.5120002
 20
23394935.6319981
 10
75757824.8920001
 20
23394384.4479981
 10
75757806.9280001
 20
23394416.0679982
 10
75757778.02
 20
23394468.6519982
 10
75757749.8320001
 20
23394521.6199981
 10
75757722.3760001
 20
23394574.9719982
 10
75757695.6640002
 20
23394628.6959982
 10
75757669.6960001
 20
23394682.7799982
 10
75757644.4720002
 20
23394737.2239982
 10
75757619.632
 20
23394792.9399981
 10
75757597.108
 20
23394848.5479981
 10
75757573.8760001
 20
23394903.8679981
 10
75757549.9480001
 20
23394958.8999983
 10
75757525.3240001
 20
23395013.6079981
 10
75757500.0040001
 20
23395068.0039981
 10
75758616.0040001
 20
23395632.0039981
 10
75758939.5120002
 20
23394935.6319981
  0
LWPOLYLINE
  5
200B9
  8
0
100
AcDbEntity
100
AcDbPolyline
 70
0
 90
19
 62
7
370
0
 10
75757768.7680001
 20
23397240.6519981
 10
75758885.0200001
 20
23397391.8039982
 10
75758889.844
 20
23397332.0319982
 10
75758901.232
 20
23397273.1479981
 10
75758919.0400002
 20
23397215.8959981
 10
75758943.076
 20
23397160.9479982
 10
75758973.0160001
 20
23397108.9879983
 10
75759008.5120002
 20
23397060.6519984
 10
75759049.12
 20
23397016.5279981
 10
75759094.3480001
 20
23396977.1439981
 10
75759143.6440001
 20
23396943.0039982
 10
75759196.4200001
 20
23396914.5039981
 10
75759262.7560001
 20
23396887.9719982
 10
75759315.52
 20
23396859.6519982
 10
75759336.0040001
 20
23396856.0039982
 10
75758227.7800001
 20
23396265.4119981
 10
75758160.0040001
 20
23396376.0039982
 10
75757848.0040001
 20
23397060.0039982
 10
75757768.7680001
 20
23397240.6519981
  0
LWPOLYLINE
  5
200BA
  8
0
100
AcDbEntity
100
AcDbPolyline
 70
0
 90
16
 62
7
370
0
 10
75758580.5560002
 20
23390532.4719983
 10
75758928.004
 20
23390124.0039983
 10
75759469.4440001
 20
23389465.2639982
 10
75758071.0960001
 20
23389283.5239981
 10
75758069.5480001
 20
23389299.5199981
 10
75758059.492
 20
23389358.6679982
 10
75758045.2360001
 20
23389416.9279982
 10
75758026.816
 20
23389474.0239981
 10
75758004.352
 20
23389529.6439981
 10
75757977.9520001
 20
23389583.5119982
 10
75757947.7480001
 20
23389635.339998
 10
75757913.9080001
 20
23389684.8639981
 10
75757876.588
 20
23389731.8319982
 10
75757836.0040001
 20
23389776.0039982
 10
75757752.0040001
 20
23389824.0039981
 10
75758580.5560002
 20
23390532.4719983
  0
LWPOLYLINE
  5
200BB
  8
0
100
AcDbEntity
100
AcDbPolyline
 70
0
 90
34
 62
7
370
0
 10
75759323.3080001
 20
23394109.5039982
 10
75759192.0040001
 20
23394048.0039981
 10
75759143.812
 20
23394022.7199983
 10
75759090.4480001
 20
23393995.3119982
 10
75759036.8320002
 20
23393968.3719982
 10
75758982.9760001
 20
23393941.9239981
 10
75758928.8800001
 20
23393915.9559983
 10
75758874.5560001
 20
23393890.4919982
 10
75758820.0040001
 20
23393865.5079981
 10
75758765.2480002
 20
23393841.0039982
 10
75758710.2400001
 20
23393817.0159982
 10
75758655.0400002
 20
23393793.5079982
 10
75758599.6240001
 20
23393770.5039981
 10
75758544.0040001
 20
23393748.0159982
 10
75758476.3600001
 20
23393724.0159982
 10
75758416.7680001
 20
23393718.1599982
 10
75758357.344
 20
23393725.4919982
 10
75758300.9560002
 20
23393745.6639983
 10
75758250.3640001
 20
23393777.6799982
 10
75758208.0040001
 20
23393820.0039982
 10
75758171.2960001
 20
23393866.5279983
 10
75758134.7680001
 20
23393914.1319981
 10
75758098.912
 20
23393962.215998
 10
75758063.716
 20
23394010.8279982
 10
75758029.1920002
 20
23394059.9079982
 10
75757995.352
 20
23394109.4439983
 10
75757962.1960001
 20
23394159.4479982
 10
75757929.7360002
 20
23394209.9079981
 10
75757897.9600001
 20
23394260.8119982
 10
75757866.9040001
 20
23394312.1479981
 10
75757836.5560002
 20
23394363.9039983
 10
75757824.8920001
 20
23394384.4479981
 10
75758939.5120002
 20
23394935.6319981
 10
75759323.3080001
 20
23394109.5039982
  0
LWPOLYLINE
  5
200BC
  8
0
100
AcDbEntity
100
AcDbPolyline
 70
0
 90
29
 62
7
370
0
 10
75760404.0040001
 20
23413392.0039981
 10
75760404.0040001
 20
23413344.0039982
 10
75760445.3080001
 20
23412504.2679983
 10
75758205.7
 20
23412202.0719982
 10
75758197.7920001
 20
23412237.8799981
 10
75758185.108
 20
23412296.5239981
 10
75758172.688
 20
23412355.2279982
 10
75758160.5320001
 20
23412413.9799981
 10
75758148.6400001
 20
23412472.7919982
 10
75758137.0120001
 20
23412531.6519983
 10
75758125.648
 20
23412590.5719981
 10
75758114.536
 20
23412649.5279982
 10
75758103.7000001
 20
23412708.5439982
 10
75758093.1280001
 20
23412767.6079981
 10
75758082.8200001
 20
23412826.7079982
 10
75758072.7760002
 20
23412885.8679981
 10
75758063.0080001
 20
23412945.0639981
 10
75758053.48
 20
23413004.3079982
 10
75758044.2280001
 20
23413063.5879982
 10
75758035.2400001
 20
23413122.9039983
 10
75758026.5160001
 20
23413182.2679982
 10
75758018.0560001
 20
23413241.6679981
 10
75758009.872
 20
23413301.1159982
 10
75758001.94
 20
23413360.5879982
 10
75757994.2840001
 20
23413420.0959982
 10
75757986.8920001
 20
23413479.6399982
 10
75757979.7640001
 20
23413539.2079982
 10
75757972.9000002
 20
23413598.8239981
 10
75760404.0040001
 20
23413392.0039981
  0
LWPOLYLINE
  5
200BD
  8
0
100
AcDbEntity
100
AcDbPolyline
 70
0
 90
6
 62
7
370
0
 10
75758725.66
 20
23392165.3719981
 10
75759252.2680001
 20
23391528.2199982
 10
75758387.4280002
 20
23390759.5239981
 10
75758076.0040001
 20
23391132.0039983
 10
75757846.8640001
 20
23391395.0319981
 10
75758725.66
 20
23392165.3719981
  0
LWPOLYLINE
  5
200BE
  8
0
100
AcDbEntity
100
AcDbPolyline
 70
0
 90
14
 62
7
370
0
 10
75760010.896
 20
23388806.4879982
 10
75760356.0040001
 20
23388396.0039982
 10
75759879.1240001
 20
23388067.4799981
 10
75757996.384
 20
23388831.7959982
 10
75758020.12
 20
23388886.8879982
 10
75758039.824
 20
23388943.5399982
 10
75758055.424
 20
23389001.4759981
 10
75758066.8120001
 20
23389060.3599982
 10
75758073.952
 20
23389119.9279983
 10
75758076.7840001
 20
23389179.8439981
 10
75758075.3200001
 20
23389239.8199981
 10
75758071.0960001
 20
23389283.5239981
 10
75759469.4440001
 20
23389465.2639982
 10
75760010.896
 20
23388806.4879982
  0
LWPOLYLINE
  5
200BF
  8
0
100
AcDbEntity
100
AcDbPolyline
 70
0
 90
10
 62
7
370
0
 10
75759348.052
 20
23397941.9919982
 10
75759283.1560001
 20
23397928.6119982
 10
75759226.3120001
 20
23397909.4959981
 10
75759171.9280002
 20
23397884.1999982
 10
75759120.6640002
 20
23397853.0959982
 10
75759073.1560001
 20
23397816.5079981
 10
75759047.8600001
 20
23397792.1359982
 10
75758076.0040001
 20
23398632.0039981
 10
75759357.3400001
 20
23399261.4399981
 10
75759348.052
 20
23397941.9919982
  0
LWPOLYLINE
  5
200C0
  8
0
100
AcDbEntity
100
AcDbPolyline
 70
0
 90
27
 62
7
370
0
 10
75760518.5200001
 20
23411605.3959981
 10
75758470.552
 20
23411193.1959983
 10
75758453.2
 20
23411250.6279982
 10
75758436.1000001
 20
23411308.1439982
 10
75758419.2640001
 20
23411365.7319981
 10
75758402.6800001
 20
23411423.3919981
 10
75758386.3600002
 20
23411481.1359983
 10
75758370.3040002
 20
23411538.9399981
 10
75758354.5000001
 20
23411596.8279981
 10
75758338.9480001
 20
23411654.7759983
 10
75758323.66
 20
23411712.7959982
 10
75758308.6360002
 20
23411770.8639983
 10
75758293.8640001
 20
23411829.0399982
 10
75758279.356
 20
23411887.2519981
 10
75758265.1120001
 20
23411945.5359981
 10
75758251.12
 20
23412003.8919982
 10
75758237.3920001
 20
23412062.2959982
 10
75758223.9160001
 20
23412120.7599982
 10
75758210.728
 20
23412179.2959981
 10
75758205.7
 20
23412202.0719982
 10
75760445.3080001
 20
23412504.2679983
 10
75760476.0040001
 20
23411880.0039982
 10
75760481.7760002
 20
23411823.687998
 10
75760489.48
 20
23411764.1919982
 10
75760498.8280001
 20
23411704.9239981
 10
75760509.8080001
 20
23411645.9319983
 10
75760518.5200001
 20
23411605.3959981
  0
LWPOLYLINE
  5
200C1
  8
0
100
AcDbEntity
100
AcDbPolyline
 70
0
 90
7
 62
7
370
0
 10
75758227.7800001
 20
23396265.4119981
 10
75759336.0040001
 20
23396856.0039982
 10
75759360.676
 20
23396820.3519982
 10
75759396.0040001
 20
23396772.0039981
 10
75759696.004
 20
23396148.0039982
 10
75758616.0040001
 20
23395632.0039981
 10
75758227.7800001
 20
23396265.4119981
  0
LWPOLYLINE
  5
200C2
  8
0
100
AcDbEntity
100
AcDbPolyline
 70
0
 90
42
 62
7
370
0
 10
75760795.2640001
 20
23410924.5279982
 10
75758998.2520001
 20
23409759.0879982
 10
75758986.732
 20
23409785.6319981
 10
75758963.08
 20
23409840.7839982
 10
75758939.6800001
 20
23409896.0319982
 10
75758916.5200001
 20
23409951.3759983
 10
75758893.6240001
 20
23410006.8399981
 10
75758870.9560002
 20
23410062.3879982
 10
75758848.552
 20
23410118.0559982
 10
75758826.4000002
 20
23410173.8079982
 10
75758804.4760001
 20
23410229.6679982
 10
75758782.816
 20
23410285.6119982
 10
75758761.4080001
 20
23410341.6639983
 10
75758740.2400001
 20
23410397.8119982
 10
75758719.3360001
 20
23410454.0439982
 10
75758698.6720001
 20
23410510.3839981
 10
75758678.272
 20
23410566.7959982
 10
75758658.1120001
 20
23410623.3159982
 10
75758638.2160001
 20
23410679.9199981
 10
75758618.5720001
 20
23410736.6079979
 10
75758599.1800002
 20
23410793.3919982
 10
75758580.0400002
 20
23410850.2599982
 10
75758561.1640002
 20
23410907.2119982
 10
75758542.5160001
 20
23410964.2479983
 10
75758524.1440001
 20
23411021.3559981
 10
75758506.024
 20
23411078.5599983
 10
75758488.1560001
 20
23411135.8359983
 10
75758470.552
 20
23411193.1959983
 10
75760518.5200001
 20
23411605.3959981
 10
75760522.4080001
 20
23411587.2759983
 10
75760536.6160001
 20
23411528.9919983
 10
75760552.4200001
 20
23411471.1039981
 10
75760569.8080001
 20
23411413.6839982
 10
75760588.7800001
 20
23411356.7679981
 10
75760609.3120001
 20
23411300.3919982
 10
75760631.3920001
 20
23411244.6039982
 10
75760654.9960001
 20
23411189.4399981
 10
75760680.1120002
 20
23411134.9479981
 10
75760706.7160001
 20
23411081.1759981
 10
75760734.7840001
 20
23411028.1479981
 10
75760764.316
 20
23410975.9239983
 10
75760795.2640001
 20
23410924.5279982
  0
LWPOLYLINE
  5
200C3
  8
0
100
AcDbEntity
100
AcDbPolyline
 70
0
 90
6
 62
7
370
0
 10
75759795.52
 20
23390870.8959982
 10
75758928.004
 20
23390124.0039983
 10
75758580.5560002
 20
23390532.4719983
 10
75758387.4280002
 20
23390759.5239981
 10
75759252.2680001
 20
23391528.2199982
 10
75759795.52
 20
23390870.8959982
  0
LWPOLYLINE
  5
200C4
  8
0
100
AcDbEntity
100
AcDbPolyline
 70
0
 90
5
 62
7
370
0
 10
75759696.004
 20
23396148.0039982
 10
75760013.9200001
 20
23395466.7639982
 10
75758939.5120002
 20
23394935.6319981
 10
75758616.0040001
 20
23395632.0039981
 10
75759696.004
 20
23396148.0039982
  0
LWPOLYLINE
  5
200C5
  8
0
100
AcDbEntity
100
AcDbPolyline
 70
0
 90
45
 62
7
370
0
 10
75761304.9880001
 20
23410357.2399981
 10
75759739.7200002
 20
23408301.4719982
 10
75759726.2800001
 20
23408324.2119981
 10
75759696.004
 20
23408376.0039982
 10
75759686.524
 20
23408392.3839981
 10
75759656.6440001
 20
23408444.4159982
 10
75759626.992
 20
23408496.5799981
 10
75759597.58
 20
23408548.8759983
 10
75759568.3960001
 20
23408601.3039983
 10
75759539.4520001
 20
23408653.8519982
 10
75759510.7360002
 20
23408706.5319982
 10
75759482.26
 20
23408759.3439981
 10
75759454.0120001
 20
23408812.2879982
 10
75759426.0160001
 20
23408865.3519981
 10
75759398.2480002
 20
23408918.5359981
 10
75759370.7200001
 20
23408971.8519982
 10
75759343.4320001
 20
23409025.2879981
 10
75759316.384
 20
23409078.8439981
 10
75759289.576
 20
23409132.5199982
 10
75759263.008
 20
23409186.315998
 10
75759236.6680001
 20
23409240.2319981
 10
75759210.58
 20
23409294.2559982
 10
75759184.744
 20
23409348.4239982
 10
75759159.1360001
 20
23409402.6759981
 10
75759133.7680001
 20
23409457.0479981
 10
75759108.6520001
 20
23409511.5399983
 10
75759083.7640001
 20
23409566.1399981
 10
75759059.1520001
 20
23409620.8479983
 10
75759034.7680001
 20
23409675.6759982
 10
75759010.6240001
 20
23409730.5999982
 10
75758998.2520001
 20
23409759.0879982
 10
75760795.2640001
 20
23410924.5279982
 10
75760827.6280001
 20
23410873.9959981
 10
75760861.3600001
 20
23410824.3879983
 10
75760896.4480001
 20
23410775.7159981
 10
75760932.868
 20
23410728.0399983
 10
75760970.5840001
 20
23410681.3719981
 10
75761009.5720001
 20
23410635.7719981
 10
75761049.796
 20
23410591.2519982
 10
75761091.232
 20
23410547.8719981
 10
75761133.856
 20
23410505.6439982
 10
75761177.62
 20
23410464.5799981
 10
75761222.5000001
 20
23410424.7759983
 10
75761268.4600001
 20
23410386.2079982
 10
75761304.9880001
 20
23410357.2399981
  0
LWPOLYLINE
  5
200C6
  8
0
100
AcDbEntity
100
AcDbPolyline
 70
0
 90
13
 62
7
370
0
 10
75760140.0040001
 20
23394492.0159982
 10
75759323.3080001
 20
23394109.5039982
 10
75758939.5120002
 20
23394935.6319981
 10
75760013.9200001
 20
23395466.7639982
 10
75760284.0040001
 20
23394888.0039981
 10
75760301.9320001
 20
23394841.3479982
 10
75760312.6240001
 20
23394782.4159983
 10
75760311.1240001
 20
23394722.5359981
 10
75760297.492
 20
23394664.2159981
 10
75760272.3040002
 20
23394609.8799981
 10
75760236.604
 20
23394561.7839982
 10
75760191.8800001
 20
23394521.9319982
 10
75760140.0040001
 20
23394492.0159982
  0
LWPOLYLINE
  5
200C7
  8
0
100
AcDbEntity
100
AcDbPolyline
 70
0
 90
5
 62
7
370
0
 10
75760332.8800001
 20
23390220.7239981
 10
75759469.4440001
 20
23389465.2639982
 10
75758928.004
 20
23390124.0039983
 10
75759795.52
 20
23390870.8959982
 10
75760332.8800001
 20
23390220.7239981
  0
LWPOLYLINE
  5
200C8
  8
0
100
AcDbEntity
100
AcDbPolyline
 70
0
 90
14
 62
7
370
0
 10
75760237.1920002
 20
23392594.6239982
 10
75759659.0440001
 20
23392103.2119982
 10
75759060.0160001
 20
23392824.0039982
 10
75759024.4480001
 20
23392872.2079982
 10
75758999.3200001
 20
23392926.5799981
 10
75758985.6520002
 20
23392984.8879981
 10
75758984.008
 20
23393044.7679982
 10
75758994.4600001
 20
23393103.7479982
 10
75759016.5640001
 20
23393159.4159982
 10
75759049.4320001
 20
23393209.4799981
 10
75759091.7080001
 20
23393251.9239982
 10
75759148.828
 20
23393288.4879981
 10
75759756.0040001
 20
23393580.0039981
 10
75760237.1920002
 20
23392594.6239982
  0
LWPOLYLINE
  5
200C9
  8
0
100
AcDbEntity
100
AcDbPolyline
 70
0
 90
12
 62
7
370
0
 10
75760620.76
 20
23398572.3519982
 10
75759744.0040001
 20
23397852.0039982
 10
75759689.9200001
 20
23397880.5039982
 10
75759635.8960001
 20
23397906.5559982
 10
75759579.3400001
 20
23397926.4879982
 10
75759520.924
 20
23397940.0599982
 10
75759461.368
 20
23397947.1039981
 10
75759401.4040001
 20
23397947.535998
 10
75759348.052
 20
23397941.9919982
 10
75759357.3400001
 20
23399261.4399981
 10
75760128.0040001
 20
23399640.0039981
 10
75760620.76
 20
23398572.3519982
  0
ENDSEC
  0
SECTION
  2
OBJECTS
  0
DICTIONARY
  5
C
330
0
100
AcDbDictionary
281
     1
  3
ACAD_GROUP
350
D
  3
ACAD_LAYOUT
350
1A
  3
ACAD_MLEADERSTYLE
350
43
  3
ACAD_MLINESTYLE
350
17
  3
ACAD_PLOTSETTINGS
350
19
  3
ACAD_PLOTSTYLENAME
350
E
  3
ACAD_TABLESTYLE
350
42
  3
ACAD_VISUALSTYLE
350
2A
  0
DICTIONARY
  5
D
102
{ACAD_REACTORS
330
C
102
}
330
C
100
AcDbDictionary
281
     1
  0
DICTIONARY
  5
1A
102
{ACAD_REACTORS
330
C
102
}
330
C
100
AcDbDictionary
281
     1
  3
Layout1
350
1E
  3
Layout2
350
26
  3
Model
350
22
  0
DICTIONARY
  5
43
102
{ACAD_REACTORS
330
C
102
}
330
C
100
AcDbDictionary
281
     1
  0
DICTIONARY
  5
17
102
{ACAD_REACTORS
330
C
102
}
330
C
100
AcDbDictionary
281
     1
  3
Standard
350
18
  0
DICTIONARY
  5
19
102
{ACAD_REACTORS
330
C
102
}
330
C
100
AcDbDictionary
281
     1
  0
ACDBDICTIONARYWDFLT
  5
E
102
{ACAD_REACTORS
330
C
102
}
330
C
100
AcDbDictionary
281
     1
  3
Normal
350
F
100
AcDbDictionaryWithDefault
340
F
  0
DICTIONARY
  5
42
102
{ACAD_REACTORS
330
C
102
}
330
C
100
AcDbDictionary
281
     1
  0
DICTIONARY
  5
2A
102
{ACAD_REACTORS
330
C
102
}
330
C
100
AcDbDictionary
281
     1
  3
2dWireframe
350
2F
  3
3D Hidden
350
31
  3
3dWireframe
350
30
  3
Basic
350
32
  3
Brighten
350
36
  3
ColorChange
350
3A
  3
Conceptual
350
34
  3
Dim
350
35
  3
Facepattern
350
39
  3
Flat
350
2B
  3
FlatWithEdges
350
2C
  3
Gouraud
350
2D
  3
GouraudWithEdges
350
2E
  3
Linepattern
350
38
  3
Realistic
350
33
  3
Thicken
350
37
  0
LAYOUT
  5
1E
102
{ACAD_REACTORS
330
1A
102
}
330
1A
100
AcDbPlotSettings
  1

  2
none_device
  4

  6

 40
0.0
 41
0.0
 42
0.0
 43
0.0
 44
0.0
 45
0.0
 46
0.0
 47
0.0
 48
0.0
 49
0.0
140
0.0
141
0.0
142
1.0
143
1.0
 70
   688
 72
     0
 73
     0
 74
     5
  7

 75
    16
 76
     0
 77
     2
 78
   300
147
1.0
148
0.0
149
0.0
100
AcDbLayout
  1
Layout1
 70
     1
 71
     1
 10
0.0
 20
0.0
 11
12.0
 21
9.0
 12
0.0
 22
0.0
 32
0.0
 14
1.000000000000000E+20
 24
1.000000000000000E+20
 34
1.000000000000000E+20
 15
-1.000000000000000E+20
 25
-1.000000000000000E+20
 35
-1.000000000000000E+20
146
0.0
 13
0.0
 23
0.0
 33
0.0
 16
1.0
 26
0.0
 36
0.0
 17
0.0
 27
1.0
 37
0.0
 76
     0
330
1B
  0
LAYOUT
  5
26
102
{ACAD_REACTORS
330
1A
102
}
330
1A
100
AcDbPlotSettings
  1

  2
none_device
  4

  6

 40
0.0
 41
0.0
 42
0.0
 43
0.0
 44
0.0
 45
0.0
 46
0.0
 47
0.0
 48
0.0
 49
0.0
140
0.0
141
0.0
142
1.0
143
1.0
 70
   688
 72
     0
 73
     0
 74
     5
  7

 75
    16
 76
     0
 77
     2
 78
   300
147
1.0
148
0.0
149
0.0
100
AcDbLayout
  1
Layout2
 70
     1
 71
     2
 10
0.0
 20
0.0
 11
0.0
 21
0.0
 12
0.0
 22
0.0
 32
0.0
 14
0.0
 24
0.0
 34
0.0
 15
0.0
 25
0.0
 35
0.0
146
0.0
 13
0.0
 23
0.0
 33
0.0
 16
1.0
 26
0.0
 36
0.0
 17
0.0
 27
1.0
 37
0.0
 76
     0
330
23
  0
LAYOUT
  5
22
102
{ACAD_REACTORS
330
1A
102
}
330
1A
100
AcDbPlotSettings
  1

  2
none_device
  4

  6

 40
0.0
 41
0.0
 42
0.0
 43
0.0
 44
0.0
 45
0.0
 46
0.0
 47
0.0
 48
0.0
 49
0.0
140
0.0
141
0.0
142
1.0
143
1.0
 70
  1712
 72
     0
 73
     0
 74
     0
  7

 75
     0
 76
     0
 77
     2
 78
   300
147
1.0
148
0.0
149
0.0
100
AcDbLayout
  1
Model
 70
     1
 71
     0
 10
0.0
 20
0.0
 11
12.0
 21
9.0
 12
0.0
 22
0.0
 32
0.0
 14
30.0
 24
49.75
 34
0.0
 15
130.5
 25
163.1318914119703
 35
0.0
146
0.0
 13
0.0
 23
0.0
 33
0.0
 16
1.0
 26
0.0
 36
0.0
 17
0.0
 27
1.0
 37
0.0
 76
     0
330
1F
331
29
  0
MLINESTYLE
  5
18
102
{ACAD_REACTORS
330
17
102
}
330
17
100
AcDbMlineStyle
  2
Standard
 70
     0
  3

 62
   256
 51
90.0
 52
90.0
 71
     2
 49
0.5
 62
   256
  6
BYLAYER
 49
-0.5
 62
   256
  6
BYLAYER
  0
ACDBPLACEHOLDER
  5
F
102
{ACAD_REACTORS
330
E
102
}
330
E
  0
VISUALSTYLE
  5
2F
102
{ACAD_REACTORS
330
2A
102
}
330
2A
100
AcDbVisualStyle
  2
2dWireframe
 70
     4
 71
     0
 72
     2
 73
     0
 90
        0
 40
-0.6
 41
-30.0
 62
     5
 63
     7
421
 16777215
 74
     1
 91
        4
 64
     7
 65
   257
 75
     1
175
     1
 42
1.0
 92
        0
 66
   257
 43
1.0
 76
     1
 77
     6
 78
     2
 67
     7
 79
     5
170
     0
171
     0
290
     0
174
     0
 93
        1
 44
0.0
173
     0
291
     0
 45
0.0
1001
ACAD
1000
AcDbSavedByObjectVersion
1070
     0
  0
VISUALSTYLE
  5
31
102
{ACAD_REACTORS
330
2A
102
}
330
2A
100
AcDbVisualStyle
  2
3D Hidden
 70
     6
 71
     1
 72
     2
 73
     2
 90
        0
 40
-0.6
 41
-30.0
 62
     5
 63
     7
421
 16777215
 74
     2
 91
        2
 64
     7
 65
   257
 75
     2
175
     1
 42
40.0
 92
        0
 66
   257
 43
1.0
 76
     1
 77
     6
 78
     2
 67
     7
 79
     3
170
     0
171
     0
290
     0
174
     0
 93
        1
 44
0.0
173
     0
291
     0
 45
0.0
1001
ACAD
1000
AcDbSavedByObjectVersion
1070
     0
  0
VISUALSTYLE
  5
30
102
{ACAD_REACTORS
330
2A
102
}
330
2A
100
AcDbVisualStyle
  2
3dWireframe
 70
     5
 71
     0
 72
     2
 73
     0
 90
        0
 40
-0.6
 41
-30.0
 62
     5
 63
     7
421
 16777215
 74
     1
 91
        4
 64
     7
 65
   257
 75
     1
175
     1
 42
1.0
 92
        0
 66
   257
 43
1.0
 76
     1
 77
     6
 78
     2
 67
     7
 79
     5
170
     0
171
     0
290
     0
174
     0
 93
        1
 44
0.0
173
     0
291
     0
 45
0.0
1001
ACAD
1000
AcDbSavedByObjectVersion
1070
     0
  0
VISUALSTYLE
  5
32
102
{ACAD_REACTORS
330
2A
102
}
330
2A
100
AcDbVisualStyle
  2
Basic
 70
     7
 71
     1
 72
     0
 73
     1
 90
        0
 40
-0.6
 41
-30.0
 62
     5
 63
     7
421
 16777215
 74
     0
 91
        4
 64
     7
 65
   257
 75
     1
175
     1
 42
1.0
 92
        8
 66
     7
 43
1.0
 76
     1
 77
     6
 78
     2
 67
     7
 79
     5
170
     0
171
     0
290
     0
174
     0
 93
        1
 44
0.0
173
     0
291
     1
 45
0.0
1001
ACAD
1000
AcDbSavedByObjectVersion
1070
     0
  0
VISUALSTYLE
  5
36
102
{ACAD_REACTORS
330
2A
102
}
330
2A
100
AcDbVisualStyle
  2
Brighten
 70
    12
 71
     2
 72
     2
 73
     0
 90
        0
 40
-0.6
 41
-30.0
 62
     5
 63
     7
421
 16777215
 74
     1
 91
        4
 64
     7
 65
   257
 75
     1
175
     1
 42
1.0
 92
        8
 66
     7
 43
1.0
 76
     1
 77
     6
 78
     2
 67
     7
 79
     5
170
     0
171
     0
290
     0
174
     0
 93
        1
 44
50.0
173
     0
291
     1
 45
0.0
1001
ACAD
1000
AcDbSavedByObjectVersion
1070
     0
  0
VISUALSTYLE
  5
3A
102
{ACAD_REACTORS
330
2A
102
}
330
2A
100
AcDbVisualStyle
  2
ColorChange
 70
    16
 71
     2
 72
     2
 73
     3
 90
        0
 40
-0.6
 41
-30.0
 62
     5
 63
     8
421
  8421504
 74
     1
 91
        4
 64
     7
 65
   257
 75
     1
175
     1
 42
1.0
 92
        8
 66
     8
424
  8421504
 43
1.0
 76
     1
 77
     6
 78
     2
 67
     7
 79
     5
170
     0
171
     0
290
     0
174
     0
 93
        1
 44
0.0
173
     0
291
     1
 45
0.0
1001
ACAD
1000
AcDbSavedByObjectVersion
1070
     0
  0
VISUALSTYLE
  5
34
102
{ACAD_REACTORS
330
2A
102
}
330
2A
100
AcDbVisualStyle
  2
Conceptual
 70
     9
 71
     3
 72
     2
 73
     0
 90
        0
 40
-0.6
 41
-30.0
 62
     5
 63
     7
421
 16777215
 74
     2
 91
        2
 64
     7
 65
   257
 75
     1
175
     1
 42
40.0
 92
        8
 66
     7
 43
1.0
 76
     1
 77
     6
 78
     2
 67
     7
 79
     3
170
     0
171
     0
290
     0
174
     0
 93
        1
 44
0.0
173
     0
291
     0
 45
0.0
1001
ACAD
1000
AcDbSavedByObjectVersion
1070
     0
  0
VISUALSTYLE
  5
35
102
{ACAD_REACTORS
330
2A
102
}
330
2A
100
AcDbVisualStyle
  2
Dim
 70
    11
 71
     2
 72
     2
 73
     0
 90
        0
 40
-0.6
 41
-30.0
 62
     5
 63
     7
421
 16777215
 74
     1
 91
        4
 64
     7
 65
   257
 75
     1
175
     1
 42
1.0
 92
        8
 66
     7
 43
1.0
 76
     1
 77
     6
 78
     2
 67
     7
 79
     5
170
     0
171
     0
290
     0
174
     0
 93
        1
 44
-50.0
173
     0
291
     1
 45
0.0
1001
ACAD
1000
AcDbSavedByObjectVersion
1070
     0
  0
VISUALSTYLE
  5
39
102
{ACAD_REACTORS
330
2A
102
}
330
2A
100
AcDbVisualStyle
  2
Facepattern
 70
    15
 71
     2
 72
     2
 73
     0
 90
        0
 40
-0.6
 41
-30.0
 62
     5
 63
     7
421
 16777215
 74
     1
 91
        4
 64
     7
 65
   257
 75
     1
175
     1
 42
1.0
 92
        8
 66
     7
 43
1.0
 76
     1
 77
     6
 78
     2
 67
     7
 79
     5
170
     0
171
     0
290
     0
174
     0
 93
        1
 44
0.0
173
     0
291
     1
 45
0.0
1001
ACAD
1000
AcDbSavedByObjectVersion
1070
     0
  0
VISUALSTYLE
  5
2B
102
{ACAD_REACTORS
330
2A
102
}
330
2A
100
AcDbVisualStyle
  2
Flat
 70
     0
 71
     2
 72
     1
 73
     1
 90
        2
 40
-0.6
 41
30.0
 62
     5
 63
     7
421
 16777215
 74
     0
 91
        4
 64
     7
 65
   257
 75
     1
175
     1
 42
1.0
 92
        8
 66
     7
 43
1.0
 76
     1
 77
     6
 78
     2
 67
     7
 79
     5
170
     0
171
     0
290
     0
174
     0
 93
       13
 44
0.0
173
     0
291
     1
 45
0.0
1001
ACAD
1000
AcDbSavedByObjectVersion
1070
     0
  0
VISUALSTYLE
  5
2C
102
{ACAD_REACTORS
330
2A
102
}
330
2A
100
AcDbVisualStyle
  2
FlatWithEdges
 70
     1
 71
     2
 72
     1
 73
     1
 90
        2
 40
-0.6
 41
30.0
 62
     5
 63
     7
421
 16777215
 74
     1
 91
        4
 64
     7
 65
   257
 75
     1
175
     1
 42
1.0
 92
        0
 66
   257
 43
1.0
 76
     1
 77
     6
 78
     2
 67
     7
 79
     5
170
     0
171
     0
290
     0
174
     0
 93
       13
 44
0.0
173
     0
291
     1
 45
0.0
1001
ACAD
1000
AcDbSavedByObjectVersion
1070
     0
  0
VISUALSTYLE
  5
2D
102
{ACAD_REACTORS
330
2A
102
}
330
2A
100
AcDbVisualStyle
  2
Gouraud
 70
     2
 71
     2
 72
     2
 73
     1
 90
        2
 40
-0.6
 41
30.0
 62
     5
 63
     7
421
 16777215
 74
     0
 91
        4
 64
     7
 65
   257
 75
     1
175
     1
 42
1.0
 92
        0
 66
     7
 43
1.0
 76
     1
 77
     6
 78
     2
 67
     7
 79
     5
170
     0
171
     0
290
     0
174
     0
 93
       13
 44
0.0
173
     0
291
     1
 45
0.0
1001
ACAD
1000
AcDbSavedByObjectVersion
1070
     0
  0
VISUALSTYLE
  5
2E
102
{ACAD_REACTORS
330
2A
102
}
330
2A
100
AcDbVisualStyle
  2
GouraudWithEdges
 70
     3
 71
     2
 72
     2
 73
     1
 90
        2
 40
-0.6
 41
30.0
 62
     5
 63
     7
421
 16777215
 74
     1
 91
        4
 64
     7
 65
   257
 75
     1
175
     1
 42
1.0
 92
        0
 66
   257
 43
1.0
 76
     1
 77
     6
 78
     2
 67
     7
 79
     5
170
     0
171
     0
290
     0
174
     0
 93
       13
 44
0.0
173
     0
291
     1
 45
0.0
1001
ACAD
1000
AcDbSavedByObjectVersion
1070
     0
  0
VISUALSTYLE
  5
38
102
{ACAD_REACTORS
330
2A
102
}
330
2A
100
AcDbVisualStyle
  2
Linepattern
 70
    14
 71
     2
 72
     2
 73
     0
 90
        0
 40
-0.6
 41
-30.0
 62
     5
 63
     7
421
 16777215
 74
     1
 91
        4
 64
     7
 65
   257
 75
     7
175
     7
 42
1.0
 92
        8
 66
     7
 43
1.0
 76
     1
 77
     6
 78
     2
 67
     7
 79
     5
170
     0
171
     0
290
     0
174
     0
 93
        1
 44
0.0
173
     0
291
     1
 45
0.0
1001
ACAD
1000
AcDbSavedByObjectVersion
1070
     0
  0
VISUALSTYLE
  5
33
102
{ACAD_REACTORS
330
2A
102
}
330
2A
100
AcDbVisualStyle
  2
Realistic
 70
     8
 71
     2
 72
     2
 73
     0
 90
        0
 40
-0.6
 41
-30.0
 62
     5
 63
     7
421
 16777215
 74
     1
 91
        0
 64
     7
 65
   257
 75
     1
175
     1
 42
1.0
 92
        8
 66
     8
424
  7895160
 43
1.0
 76
     1
 77
     6
 78
     2
 67
     7
 79
     5
170
     0
171
     0
290
     0
174
     0
 93
       13
 44
0.0
173
     0
291
     0
 45
0.0
1001
ACAD
1000
AcDbSavedByObjectVersion
1070
     0
  0
VISUALSTYLE
  5
37
102
{ACAD_REACTORS
330
2A
102
}
330
2A
100
AcDbVisualStyle
  2
Thicken
 70
    13
 71
     2
 72
     2
 73
     0
 90
        0
 40
-0.6
 41
-30.0
 62
     5
 63
     7
421
 16777215
 74
     1
 91
        4
 64
     7
 65
   257
 75
     1
175
     1
 42
1.0
 92
       12
 66
     7
 43
1.0
 76
     1
 77
     6
 78
     2
 67
     7
 79
     5
170
     0
171
     0
290
     0
174
     0
 93
        1
 44
0.0
173
     0
291
     1
 45
0.0
1001
ACAD
1000
AcDbSavedByObjectVersion
1070
     0
  0
ENDSEC
  0
EOF
